  0
SECTION
  2
HEADER
  9
$ACADVER
  1
AC1018
  9
$ACADMAINTVER
 70
    39
  9
$DWGCODEPAGE
  3
ANSI_1252
  9
$CUSTOMPROPERTYTAG
  1
AmdtFileType
  9
$CUSTOMPROPERTY
  1
84
  9
$INSBASE
 10
0.0
 20
0.0
 30
0.0
  9
$EXTMIN
 10
-0.0011225564539501
 20
-2.000935868740228
 30
-0.0000000349181948
  9
$EXTMAX
 10
17.00134146991753
 20
11.00120109126087
 30
0.0000000814935746
  9
$LIMMIN
 10
0.0
 20
0.0
  9
$LIMMAX
 10
17.0
 20
11.0
  9
$ORTHOMODE
 70
     1
  9
$REGENMODE
 70
     1
  9
$FILLMODE
 70
     1
  9
$QTEXTMODE
 70
     0
  9
$MIRRTEXT
 70
     1
  9
$LTSCALE
 40
0.4
  9
$ATTMODE
 70
     1
  9
$TEXTSIZE
 40
0.14
  9
$TRACEWID
 40
0.05
  9
$TEXTSTYLE
  7
STANDARD
  9
$CLAYER
  8
L1
  9
$CELTYPE
  6
BYLAYER
  9
$CECOLOR
 62
     7
  9
$CELTSCALE
 40
1.0
  9
$DISPSILH
 70
     0
  9
$DIMSCALE
 40
1.0
  9
$DIMASZ
 40
0.03
  9
$DIMEXO
 40
0.0625
  9
$DIMDLI
 40
0.38
  9
$DIMRND
 40
0.0
  9
$DIMDLE
 40
0.0
  9
$DIMEXE
 40
0.03
  9
$DIMTP
 40
0.0
  9
$DIMTM
 40
0.0
  9
$DIMTXT
 40
0.14
  9
$DIMCEN
 40
0.09
  9
$DIMTSZ
 40
0.0
  9
$DIMTOL
 70
     0
  9
$DIMLIM
 70
     0
  9
$DIMTIH
 70
     1
  9
$DIMTOH
 70
     1
  9
$DIMSE1
 70
     0
  9
$DIMSE2
 70
     0
  9
$DIMTAD
 70
     0
  9
$DIMZIN
 70
     0
  9
$DIMBLK
  1

  9
$DIMASO
 70
     1
  9
$DIMSHO
 70
     0
  9
$DIMPOST
  1

  9
$DIMAPOST
  1

  9
$DIMALT
 70
     0
  9
$DIMALTD
 70
     2
  9
$DIMALTF
 40
25.4
  9
$DIMLFAC
 40
1.0
  9
$DIMTOFL
 70
     0
  9
$DIMTVP
 40
0.0
  9
$DIMTIX
 70
     0
  9
$DIMSOXD
 70
     0
  9
$DIMSAH
 70
     0
  9
$DIMBLK1
  1

  9
$DIMBLK2
  1

  9
$DIMSTYLE
  2
STANDARD
  9
$DIMCLRD
 70
     0
  9
$DIMCLRE
 70
     0
  9
$DIMCLRT
 70
     0
  9
$DIMTFAC
 40
1.0
  9
$DIMGAP
 40
0.03
  9
$DIMJUST
 70
     0
  9
$DIMSD1
 70
     0
  9
$DIMSD2
 70
     0
  9
$DIMTOLJ
 70
     1
  9
$DIMTZIN
 70
     0
  9
$DIMALTZ
 70
     0
  9
$DIMALTTZ
 70
     0
  9
$DIMUPT
 70
     1
  9
$DIMDEC
 70
     4
  9
$DIMTDEC
 70
     4
  9
$DIMALTU
 70
     2
  9
$DIMALTTD
 70
     2
  9
$DIMTXSTY
  7
STANDARD
  9
$DIMAUNIT
 70
     0
  9
$DIMADEC
 70
     0
  9
$DIMALTRND
 40
0.0
  9
$DIMAZIN
 70
     0
  9
$DIMDSEP
 70
    46
  9
$DIMATFIT
 70
     3
  9
$DIMFRAC
 70
     0
  9
$DIMLDRBLK
  1

  9
$DIMLUNIT
 70
     2
  9
$DIMLWD
 70
    -2
  9
$DIMLWE
 70
    -2
  9
$DIMTMOVE
 70
     0
  9
$LUNITS
 70
     2
  9
$LUPREC
 70
     4
  9
$SKETCHINC
 40
0.1
  9
$FILLETRAD
 40
0.035
  9
$AUNITS
 70
     0
  9
$AUPREC
 70
     2
  9
$MENU
  1
ACAD
  9
$ELEVATION
 40
0.0
  9
$PELEVATION
 40
0.0
  9
$THICKNESS
 40
0.0
  9
$LIMCHECK
 70
     0
  9
$CHAMFERA
 40
0.0
  9
$CHAMFERB
 40
0.0
  9
$CHAMFERC
 40
0.0
  9
$CHAMFERD
 40
0.0
  9
$SKPOLY
 70
     0
  9
$TDCREATE
 40
2448882.703092708
  9
$TDUCREATE
 40
2448882.869759375
  9
$TDUPDATE
 40
2454280.617635683
  9
$TDUUPDATE
 40
2454280.784302350
  9
$TDINDWG
 40
7.3118094560
  9
$TDUSRTIMER
 40
7.3118076389
  9
$USRTIMER
 70
     1
  9
$ANGBASE
 50
0.0
  9
$ANGDIR
 70
     0
  9
$PDMODE
 70
    34
  9
$PDSIZE
 40
-0.6
  9
$PLINEWID
 40
0.0
  9
$SPLFRAME
 70
     0
  9
$SPLINETYPE
 70
     6
  9
$SPLINESEGS
 70
     8
  9
$HANDSEED
  5
56CD
  9
$SURFTAB1
 70
     6
  9
$SURFTAB2
 70
     6
  9
$SURFTYPE
 70
     6
  9
$SURFU
 70
     6
  9
$SURFV
 70
     6
  9
$UCSBASE
  2

  9
$UCSNAME
  2

  9
$UCSORG
 10
0.0
 20
0.0
 30
0.0
  9
$UCSXDIR
 10
1.0
 20
0.0
 30
0.0
  9
$UCSYDIR
 10
0.0
 20
1.0
 30
0.0
  9
$UCSORTHOREF
  2

  9
$UCSORTHOVIEW
 70
     0
  9
$UCSORGTOP
 10
0.0
 20
0.0
 30
0.0
  9
$UCSORGBOTTOM
 10
0.0
 20
0.0
 30
0.0
  9
$UCSORGLEFT
 10
0.0
 20
0.0
 30
0.0
  9
$UCSORGRIGHT
 10
0.0
 20
0.0
 30
0.0
  9
$UCSORGFRONT
 10
0.0
 20
0.0
 30
0.0
  9
$UCSORGBACK
 10
0.0
 20
0.0
 30
0.0
  9
$PUCSBASE
  2

  9
$PUCSNAME
  2

  9
$PUCSORG
 10
0.0
 20
0.0
 30
0.0
  9
$PUCSXDIR
 10
1.0
 20
0.0
 30
0.0
  9
$PUCSYDIR
 10
0.0
 20
1.0
 30
0.0
  9
$PUCSORTHOREF
  2

  9
$PUCSORTHOVIEW
 70
     0
  9
$PUCSORGTOP
 10
0.0
 20
0.0
 30
0.0
  9
$PUCSORGBOTTOM
 10
0.0
 20
0.0
 30
0.0
  9
$PUCSORGLEFT
 10
0.0
 20
0.0
 30
0.0
  9
$PUCSORGRIGHT
 10
0.0
 20
0.0
 30
0.0
  9
$PUCSORGFRONT
 10
0.0
 20
0.0
 30
0.0
  9
$PUCSORGBACK
 10
0.0
 20
0.0
 30
0.0
  9
$USERI1
 70
 15131
  9
$USERI2
 70
     0
  9
$USERI3
 70
     0
  9
$USERI4
 70
     0
  9
$USERI5
 70
     0
  9
$USERR1
 40
0.0
  9
$USERR2
 40
0.0
  9
$USERR3
 40
0.0
  9
$USERR4
 40
0.0
  9
$USERR5
 40
0.0
  9
$WORLDVIEW
 70
     1
  9
$SHADEDGE
 70
     3
  9
$SHADEDIF
 70
    70
  9
$TILEMODE
 70
     1
  9
$MAXACTVP
 70
    48
  9
$PINSBASE
 10
0.0
 20
0.0
 30
0.0
  9
$PLIMCHECK
 70
     0
  9
$PEXTMIN
 10
1.000000000000000E+20
 20
1.000000000000000E+20
 30
1.000000000000000E+20
  9
$PEXTMAX
 10
-1.000000000000000E+20
 20
-1.000000000000000E+20
 30
-1.000000000000000E+20
  9
$PLIMMIN
 10
0.0
 20
0.0
  9
$PLIMMAX
 10
12.0
 20
9.0
  9
$UNITMODE
 70
     0
  9
$VISRETAIN
 70
     0
  9
$PLINEGEN
 70
     0
  9
$PSLTSCALE
 70
     0
  9
$TREEDEPTH
 70
  3020
  9
$CMLSTYLE
  2
STANDARD
  9
$CMLJUST
 70
     0
  9
$CMLSCALE
 40
1.0
  9
$PROXYGRAPHICS
 70
     1
  9
$MEASUREMENT
 70
     0
  9
$CELWEIGHT
370
    -1
  9
$ENDCAPS
280
     0
  9
$JOINSTYLE
280
     0
  9
$LWDISPLAY
290
     0
  9
$INSUNITS
 70
     0
  9
$HYPERLINKBASE
  1

  9
$STYLESHEET
  1

  9
$XEDIT
290
     1
  9
$CEPSNTYPE
380
     0
  9
$PSTYLEMODE
290
     1
  9
$FINGERPRINTGUID
  2
{A813CAD6-63F5-11D4-9FC3-005004B2D6C8}
  9
$VERSIONGUID
  2
{59760E13-0A84-4C63-BC09-E452FF3E1B1E}
  9
$EXTNAMES
290
     1
  9
$PSVPSCALE
 40
0.0
  9
$OLESTARTUP
290
     0
  9
$SORTENTS
280
   127
  9
$INDEXCTL
280
     1
  9
$HIDETEXT
280
     0
  9
$XCLIPFRAME
290
     0
  9
$HALOGAP
280
     0
  9
$OBSCOLOR
 70
   257
  9
$OBSLTYPE
280
     0
  9
$INTERSECTIONDISPLAY
280
     0
  9
$INTERSECTIONCOLOR
 70
   257
  9
$DIMASSOC
280
     1
  9
$PROJECTNAME
  1

  0
ENDSEC
  0
SECTION
  2
CLASSES
  0
CLASS
  1
DICTIONARYVAR
  2
AcDbDictionaryVar
  3
ObjectDBX Classes
 90
        0
 91
        5
280
     0
281
     0
  0
CLASS
  1
ACME_DOCUMENT
  2
AcMeDoc
  3
AcMeServices
 90
        0
 91
        0
280
     0
281
     0
  0
CLASS
  1
ACMESTATEMGR
  2
AcMeStateMgr
  3
AcMeServices
 90
        0
 91
        1
280
     0
281
     0
  0
CLASS
  1
ACMESCOPE
  2
AcMeScope
  3
AcMeServices
 90
        0
 91
        1
280
     0
281
     0
  0
CLASS
  1
ACMECOMMANDHISTORY
  2
AcMeCommandHistory
  3
AcMeServices
 90
        0
 91
        1
280
     0
281
     0
  0
CLASS
  1
ACRFINSADJUSTERMGR
  2
AcRfInsAdjusterMgr
  3
AcMeServices
 90
        0
 91
        1
280
     0
281
     0
  0
CLASS
  1
ACIMSYSVARMAN
  2
AcImSysVarManager
  3
AcMeServices
 90
        0
 91
        6
280
     0
281
     0
  0
CLASS
  1
ACIMREALSYSVAR
  2
AcImRealSysVar
  3
AcMeServices
 90
        0
 91
       16
280
     0
281
     0
  0
CLASS
  1
ACIMINTSYSVAR
  2
AcImIntSysVar
  3
AcMeServices
 90
        0
 91
       45
280
     0
281
     0
  0
CLASS
  1
ACMEDRAWINGMAN
  2
AcMeDrawingMan
  3
AcMeServices
 90
        0
 91
        1
280
     0
281
     0
  0
CLASS
  1
ACMEVIEW
  2
AcMeView
  3
AcMeServices
 90
        0
 91
        1
280
     0
281
     0
  0
CLASS
  1
ACDBENTITYCACHE
  2
AcMeEntityCache
  3
AcMeServices
 90
        0
 91
        1
280
     0
281
     0
  0
CLASS
  1
ACGREFMASTER
  2
AcGrefMaster
  3
AcAttribServices
 90
        0
 91
        1
280
     0
281
     0
  0
CLASS
  1
AMIMASTER
  2
AmiMaster
  3
AmiServices
 90
        0
 91
        1
280
     0
281
     0
  0
CLASS
  1
ACASGREFMASTER
  2
AcAsGrefMaster
  3
AutoSurfResolverServices
 90
        0
 91
        1
280
     0
281
     0
  0
CLASS
  1
ADAPPL
  2
AcAdAppl
  3
DesignerServices
 90
        0
 91
        1
280
     0
281
     0
  0
CLASS
  1
DEPMGR
  2
AcAdDepMgr
  3
DesignerServices
 90
        0
 91
        1
280
     0
281
     0
  0
CLASS
  1
PARAMMGR
  2
AcAdParamMgr
  3
DesignerServices
 90
        0
 91
        1
280
     0
281
     0
  0
CLASS
  1
PARAMSCOPE
  2
AcAdParamScope
  3
DesignerServices
 90
        0
 91
        1
280
     0
281
     0
  0
CLASS
  1
ACIMSTRSYSVAR
  2
AcImStrSysVar
  3
AcMeServices
 90
        0
 91
       11
280
     0
281
     0
  0
CLASS
  1
NAMEDAPPL
  2
AcAdNamedAppl
  3
DesignerServices
 90
        0
 91
        1
280
     0
281
     0
  0
CLASS
  1
ADHNTMPLT
  2
AdHoleNoteTemplateMgr
  3
DesignerServices
 90
        0
 91
        0
280
     0
281
     0
  0
CLASS
  1
AM_HNTEMPLATE_MGR_NAME
  2
AdHoleNoteTemplateMgrName
  3
DesignerServices
 90
        0
 91
        0
280
     0
281
     0
  0
CLASS
  1
ACADGREFMODULE
  2
AcAdGrefModule
  3
AdGrefServices
 90
        0
 91
        1
280
     0
281
     0
  0
CLASS
  1
AM_DRAWING_MGR
  2
AcDmDwgMgr
  3
AcMechDwgViewMgmt
 90
        0
 91
        1
280
     0
281
     0
  0
CLASS
  1
AM_DWG_DOCUMENT
  2
AcDmDwgDocument
  3
AcMechDwgViewMgmt
 90
        0
 91
        1
280
     0
281
     0
  0
CLASS
  1
AM_DWG_SHEET
  2
AcDmSheet
  3
AcMechDwgViewMgmt
 90
        0
 91
        1
280
     0
281
     0
  0
CLASS
  1
AM_VIEWDIMPARMAP
  2
AcDmViewDimParMap
  3
AcMechDwgViewMgmt
 90
        0
 91
        1
280
     0
281
     0
  0
CLASS
  1
AM_DWGMGR_NAME
  2
AcDmDwgMgrName
  3
AcMechDwgViewMgmt
 90
        0
 91
        1
280
     0
281
     0
  0
CLASS
  1
ACAMPROJECT
  2
AcAmProject
  3
DesignerAssemblies
 90
        0
 91
        1
280
     0
281
     0
  0
CLASS
  1
ACAMGRCOMPSET
  2
AcAmGrCompSet
  3
DesignerAssemblies
 90
        0
 91
        0
280
     0
281
     0
  0
CLASS
  1
ACAMGRCOMPDEFSET
  2
AcAmGrCompDefSet
  3
DesignerAssemblies
 90
        0
 91
        1
280
     0
281
     0
  0
CLASS
  1
ACAMGRCOMPDEF
  2
AcAmGrCompDef
  3
DesignerAssemblies
 90
        0
 91
        1
280
     0
281
     0
  0
CLASS
  1
ACCMCONTEXT
  2
AcCmContext
  3
DesignerAssemblies
 90
        0
 91
        1
280
     0
281
     0
  0
CLASS
  1
ACAMCOMPDEF
  2
AcAmCompDef
  3
DesignerAssemblies
 90
        0
 91
        1
280
     0
281
     0
  0
CLASS
  1
ACAMCOMPDEFMGR
  2
AcAmCompDefMgr
  3
DesignerAssemblies
 90
        0
 91
        1
280
     0
281
     0
  0
CLASS
  1
AMCONTEXTMGR
  2
AcAmContextMgr
  3
DesignerAssemblies
 90
        0
 91
        1
280
     0
281
     0
  0
CLASS
  1
ACAMCONTEXTMODELER
  2
AcAmContextModeler
  3
DesignerAssemblies
 90
        0
 91
        1
280
     0
281
     0
  0
CLASS
  1
ACMDATADICTIONARY
  2
AcmDataDictionary
  3
"AcmSymBB|Product Description: AutoCAD Mechanical 2004 DX|Company: Autodesk"
 90
        0
 91
        1
280
     0
281
     0
  0
CLASS
  1
ACMDATAENTRYBLOCK
  2
AcmDataEntryBlock
  3
"AcmSymBB|Product Description: AutoCAD Mechanical 2004 DX|Company: Autodesk"
 90
        0
 91
        1
280
     0
281
     0
  0
CLASS
  1
ACDMVIEWGEOM
  2
AcDmViewGeometry
  3
AcMechDwgViewMgmt
 90
        0
 91
        0
280
     0
281
     1
  0
CLASS
  1
CBROWSERAPPOBJECT
  2
CBrowserAppObject
  3
McadcomServices
 90
        0
 91
        3
280
     0
281
     0
  0
CLASS
  1
IM_STATIC_MAN
  2
AcImStaticVarManager
  3
AcMeServices
 90
        0
 91
        1
280
     0
281
     0
  0
CLASS
  1
ASAPP
  2
AcAsAppObject
  3
AutoSurfServices
 90
        0
 91
        1
280
     0
281
     0
  0
CLASS
  1
ACIMDBLSTATICVAR
  2
AcImDblStaticVar
  3
AcMeServices
 90
        0
 91
       20
280
     0
281
     0
  0
CLASS
  1
ACIMSTRSTATICVAR
  2
AcImStrStaticVar
  3
AcMeServices
 90
        0
 91
       12
280
     0
281
     0
  0
CLASS
  1
ACIMINTSTATICVAR
  2
AcImIntStaticVar
  3
AcMeServices
 90
        0
 91
       17
280
     0
281
     0
  0
CLASS
  1
CATALOGSTATE
  2
AcAmCatalogState
  3
DesignerAssemblies
 90
        0
 91
        1
280
     0
281
     0
  0
CLASS
  1
DM_PLACEHOLDER
  2
AcDmSelsetPlaceholder
  3
AcMechDwgViewMgmt
 90
        0
 91
        1
280
     0
281
     0
  0
CLASS
  1
LAYER_INDEX
  2
AcDbLayerIndex
  3
ObjectDBX Classes
 90
        0
 91
        1
280
     0
281
     0
  0
CLASS
  1
IDBUFFER
  2
AcDbIdBuffer
  3
ObjectDBX Classes
 90
        0
 91
       32
280
     0
281
     0
  0
CLASS
  1
ACRFATTGENMGR
  2
AcRfAttGeneralMgr
  3
AcAttribServices
 90
        0
 91
        0
280
     0
281
     0
  0
CLASS
  1
AGDICTIONARY
  2
AgDictionary
  3
"AccelView"
 90
        1
 91
        0
280
     0
281
     0
  0
CLASS
  1
ACDBDICTIONARYWDFLT
  2
AcDbDictionaryWithDefault
  3
ObjectDBX Classes
 90
        0
 91
        1
280
     0
281
     0
  0
CLASS
  1
ACME_DOCUMENT
  2
AcMeDbDoc
  3
AcMeServices
 90
        0
 91
        2
280
     0
281
     0
  0
CLASS
  1
AMGOBJPROPCFG
  2
AmgObjPropCfg
  3
"AmgLay|Product Description: AutoCAD Mechanical 2000|Company: Autodesk"
 90
        1
 91
        1
280
     0
281
     0
  0
CLASS
  1
GSMANAGER
  2
AcMeGSManager
  3
AcMeServices
 90
        0
 91
        1
280
     0
281
     0
  0
CLASS
  1
AMDTINTERNALREACTOR
  2
AmdtInternalReactor
  3
AcMeServices
 90
        0
 91
        2
280
     0
281
     0
  0
CLASS
  1
ACME_DATABASE
  2
AcMeDbDatabase
  3
AcMeServices
 90
        0
 91
        4
280
     0
281
     0
  0
CLASS
  1
ACGREFACADMASTER
  2
AcGrefacadMaster
  3
AcGrefServices
 90
        0
 91
        1
280
     0
281
     0
  0
CLASS
  1
AMDTMENUSTATEMGR
  2
AmdtMenuStateMgr
  3
McadcomServices
 90
        0
 91
        1
280
     0
281
     0
  0
CLASS
  1
AMDTMCOMMENUSTATE
  2
AmdtMcomMenuState
  3
McadcomServices
 90
        0
 91
        1
280
     0
281
     0
  0
CLASS
  1
MAPIAMMOUDLE
  2
MApiAmModule
  3
MApiAmServices
 90
        0
 91
        1
280
     0
281
     0
  0
CLASS
  1
AMDTDMMENUSTATE
  2
AmdtDmMenuState
  3
AcMechDwgViewMgmt
 90
        0
 91
        1
280
     0
281
     0
  0
CLASS
  1
AMDTADMENUSTATE
  2
AmdtAdMenuState
  3
DesignerServices
 90
        0
 91
        1
280
     0
281
     0
  0
CLASS
  1
AMDTAMMENUSTATE
  2
AmdtAmMenuState
  3
DesignerAssemblies
 90
        0
 91
        1
280
     0
281
     0
  0
CLASS
  1
MAPIADMODULE
  2
MApiAdModule
  3
MApiAdServices
 90
        0
 91
        1
280
     0
281
     0
  0
CLASS
  1
AMDTBROWSERDBTAB
  2
AmdtBrowserDbTab
  3
McadcomServices
 90
        0
 91
        1
280
     0
281
     0
  0
CLASS
  1
OPENGraphicsChanger
  2
OPENGraphicsChanger
  3
"OPENGraphicsChanger|Product Desc:     OPENMIND Graphics Changer For hyperMILL|Company:          Open Mind Software Technologies GmbH.|WEB Address:      www.openmind.de"
 90
        1
 91
        0
280
     0
281
     1
  0
CLASS
  1
_OM_Cutterpath
  2
OPENCutterPath
  3
"OPENCutterPath|Product Desc:     Cutterpath: hyperMILL Cutterpaths|Company:          Open Mind Software Technologies GmbH.|WEB Address:      www.openmind.de"
 90
     1023
 91
        0
280
     0
281
     1
  0
CLASS
  1
ACAMCONTEXTPARTMODELER
  2
AcAmContextPartModeler
  3
DesignerAssemblies
 90
        0
 91
        0
280
     0
281
     0
  0
CLASS
  1
AMGSETTINGSOBJ
  2
AmgSettingsObj
  3
"AcadM|Product Description: AutoCAD Mechanical 2000|Company: Autodesk"
 90
        0
 91
        2
280
     0
281
     0
  0
CLASS
  1
AMDTMAPISURFMOUDULE
  2
AmdtMApiSurfModule
  3
MApiSurfServices
 90
        0
 91
        1
280
     0
281
     0
  0
CLASS
  1
ACMSTANDARDANSI
  2
AcmStandardANSI
  3
"Amdt_StdImp|Product Description: AutoCAD Mechanical 2004 DX|Company: Autodesk"
 90
        0
 91
        1
280
     0
281
     0
  0
CLASS
  1
ACMSURFSTANDARDANSI
  2
AcmSurfTextStdANSI
  3
"Amdt_StdImp|Product Description: AutoCAD Mechanical 2004 DX|Company: Autodesk"
 90
        0
 91
        1
280
     0
281
     0
  0
CLASS
  1
ACMFCFSTANDARDANSI
  2
AcmFCFStdANSI
  3
"Amdt_StdImp|Product Description: AutoCAD Mechanical 2004 DX|Company: Autodesk"
 90
        0
 91
        1
280
     0
281
     0
  0
CLASS
  1
ACMWELDSTANDARDANSI
  2
AcmWeldingStdANSI
  3
"Amdt_StdImp|Product Description: AutoCAD Mechanical 2004 DX|Company: Autodesk"
 90
        0
 91
        1
280
     0
281
     0
  0
CLASS
  1
ACMIDSTANDARDANSI
  2
AcmIdStdANSI
  3
"Amdt_StdImp|Product Description: AutoCAD Mechanical 2004 DX|Company: Autodesk"
 90
        0
 91
        1
280
     0
281
     0
  0
CLASS
  1
ACMDATUMSTANDARDANSI
  2
AcmDatumStdANSI
  3
"Amdt_StdImp|Product Description: AutoCAD Mechanical 2004 DX|Company: Autodesk"
 90
        0
 91
        1
280
     0
281
     0
  0
CLASS
  1
ACMBOMSTANDARDANSI
  2
AcmBOMStdANSI
  3
"Amdt_StdImp|Product Description: AutoCAD Mechanical 2004 DX|Company: Autodesk"
 90
        0
 91
        1
280
     0
281
     0
  0
CLASS
  1
ACMDETAILSTANDARDANSI
  2
AmdtDetailSymStdANSI
  3
"Amdt_StdImp|Product Description: AutoCAD Mechanical 2004 DX|Company: Autodesk"
 90
        0
 91
        1
280
     0
281
     0
  0
CLASS
  1
ACMSECTIONSTANDARDANSI
  2
AmdtSectionSymStdANSI
  3
"Amdt_StdImp|Product Description: AutoCAD Mechanical 2004 DX|Company: Autodesk"
 90
        0
 91
        1
280
     0
281
     0
  0
CLASS
  1
ACMCENTERLINESTANDARDANSI
  2
AmdtCenterLineStdANSI
  3
"Amdt_StdImp|Product Description: AutoCAD Mechanical 2004 DX|Company: Autodesk"
 90
        0
 91
        1
280
     0
281
     0
  0
CLASS
  1
ACMTHREADLINESTANDARDANSI
  2
AmdtThreadLineStdANSI
  3
"Amdt_StdImp|Product Description: AutoCAD Mechanical 2004 DX|Company: Autodesk"
 90
        0
 91
        1
280
     0
281
     0
  0
CLASS
  1
ACMNOTESTANDARDANSI
  2
AmdtNoteStdANSI
  3
"Amdt_StdImp|Product Description: AutoCAD Mechanical 2004 DX|Company: Autodesk"
 90
        0
 91
        1
280
     0
281
     0
  0
CLASS
  1
ACAMGLAYSTD
  2
AcAmgLayStd
  3
"AcAmgLayStd|Product Description: AutoCAD Mechanical 2000|Company: Autodesk"
 90
        0
 91
        1
280
     0
281
     0
  0
CLASS
  1
ACAMGDIMSTD
  2
AcAmgDimStd
  3
"AcAmgDimStd|Product Description: AutoCAD Mechanical 2000|Company: Autodesk"
 90
        0
 91
        1
280
     0
281
     0
  0
CLASS
  1
ACAMGHOLECHARTSTDANSI
  2
AcAmgHoleChartStdANSI
  3
ACMSYMBB_MODULE_NAME
 90
        0
 91
        1
280
     0
281
     0
  0
CLASS
  1
ACAMGTITLESTD
  2
AcAmgTitleStd
  3
"TITLEAPP"
 90
        0
 91
        1
280
     0
281
     0
  0
CLASS
  1
ACAMGFILTERDAT
  2
AcAmgFilterDat
  3
"AcadM|Product Description: AutoCAD Mechanical 2000|Company: Autodesk"
 90
        0
 91
        2
280
     0
281
     0
  0
CLASS
  1
TABLESTYLE
  2
AcDbTableStyle
  3
ObjectDBX Classes
 90
     2047
 91
        1
280
     0
281
     0
  0
CLASS
  1
SORTENTSTABLE
  2
AcDbSortentsTable
  3
ObjectDBX Classes
 90
        0
 91
        1
280
     0
281
     0
  0
CLASS
  1
AMDTNOTETEMPLATEDB
  2
AmdtNoteTemplateDB
  3
AMDT_STDIMP_MODULE_NAME
 90
        0
 91
        5
280
     0
281
     0
  0
ENDSEC
  0
SECTION
  2
TABLES
  0
TABLE
  2
VPORT
  5
8
330
0
100
AcDbSymbolTable
 70
    15
  0
VPORT
  5
56CC
330
8
100
AcDbSymbolTableRecord
100
AcDbViewportTableRecord
  2
*Active
 70
     0
 10
0.0
 20
0.0
 11
1.0
 21
1.0
 12
-15.65479981280669
 22
-2.030529340931856
 13
0.0
 23
0.0
 14
1.0
 24
1.0
 15
0.25
 25
0.25
 16
0.0
 26
0.0
 36
1.0
 17
24.31728987220911
 27
7.365322632385741
 37
0.0
 40
14.91736584816343
 41
1.227568270481144
 42
50.0
 43
0.0
 44
0.0
 50
0.0
 51
0.0
 71
     0
 72
 20000
 73
     1
 74
     0
 75
     0
 76
     0
 77
     0
 78
     0
281
     0
 65
     0
110
0.0
120
0.0
130
0.0
111
1.0
121
0.0
131
0.0
112
0.0
122
1.0
132
0.0
 79
     0
146
0.0
  0
ENDTAB
  0
TABLE
  2
LTYPE
  5
5
330
0
100
AcDbSymbolTable
 70
    18
  0
LTYPE
  5
11
330
5
100
AcDbSymbolTableRecord
100
AcDbLinetypeTableRecord
  2
BYBLOCK
 70
     0
  3

 72
    65
 73
     0
 40
0.0
  0
LTYPE
  5
12
330
5
100
AcDbSymbolTableRecord
100
AcDbLinetypeTableRecord
  2
BYLAYER
 70
     0
  3

 72
    65
 73
     0
 40
0.0
  0
LTYPE
  5
13
330
5
100
AcDbSymbolTableRecord
100
AcDbLinetypeTableRecord
  2
CONTINUOUS
 70
     0
  3
Solid line
 72
    65
 73
     0
 40
0.0
  0
LTYPE
  5
168
330
5
100
AcDbSymbolTableRecord
100
AcDbLinetypeTableRecord
  2
CENTER
 70
     0
  3
____ _ ____ _ ____ _ ____ _ ____ _ ____ _ ____
 72
    65
 73
     4
 40
2.0
 49
1.25
 74
     0
 49
-0.25
 74
     0
 49
0.25
 74
     0
 49
-0.25
 74
     0
  0
LTYPE
  5
169
330
5
100
AcDbSymbolTableRecord
100
AcDbLinetypeTableRecord
  2
HIDDEN
 70
     0
  3
_ _ _ _ _ _ _ _ _ _ _ _ _ _ _ _ _ _ _ _ _ _ _
 72
    65
 73
     2
 40
0.375
 49
0.25
 74
     0
 49
-0.125
 74
     0
  0
LTYPE
  5
30AF
330
5
100
AcDbSymbolTableRecord
100
AcDbLinetypeTableRecord
  2
PHANTOM2
 70
     0
  3
Phantom (.5x) ___ _ _ ___ _ _ ___ _ _ ___ _ _
 72
    65
 73
     6
 40
1.25
 49
0.625
 74
     0
 49
-0.125
 74
     0
 49
0.125
 74
     0
 49
-0.125
 74
     0
 49
0.125
 74
     0
 49
-0.125
 74
     0
  0
LTYPE
  5
34E6
330
5
100
AcDbSymbolTableRecord
100
AcDbLinetypeTableRecord
  2
Amconstr
 70
     0
  3
_______________________
 72
    65
 73
     2
 40
9999.0
 49
9999.0
 74
     0
 49
0.0
 74
     0
  0
LTYPE
  5
34EC
330
5
100
AcDbSymbolTableRecord
100
AcDbLinetypeTableRecord
  2
HIDDEN2
 70
     0
  3
Hidden (.5x) _ _ _ _ _ _ _ _ _ _ _ _ _ _ _ _ _
 72
    65
 73
     2
 40
0.1875
 49
0.125
 74
     0
 49
-0.0625
 74
     0
  0
LTYPE
  5
34ED
330
5
100
AcDbSymbolTableRecord
100
AcDbLinetypeTableRecord
  2
CENTER2
 70
     0
  3
Center (.5x) ___ _ ___ _ ___ _ ___ _ ___ _ ___
 72
    65
 73
     4
 40
1.125
 49
0.75
 74
     0
 49
-0.125
 74
     0
 49
0.125
 74
     0
 49
-0.125
 74
     0
  0
LTYPE
  5
34EE
330
5
100
AcDbSymbolTableRecord
100
AcDbLinetypeTableRecord
  2
Amzigzag2
 70
     0
  3
/\/-/\/-/\/-/\/-/\/-/\/
 72
    65
 73
     2
 40
0.4401
 49
0.0001
 74
     4
 75
   135
340
34EA
 46
0.0016
 50
0.0
 44
0.0
 45
0.0
 49
-0.4400000000000003
 74
     0
  0
LTYPE
  5
3F88
330
5
100
AcDbSymbolTableRecord
100
AcDbLinetypeTableRecord
  2
ACANSTGB
 70
     0
  3
__ . . __ . .
 72
    65
 73
     6
 40
0.35433070866
 49
0.15748031496
 74
     0
 49
-0.03937007874
 74
     0
 49
0.03937007874
 74
     0
 49
-0.03937007874
 74
     0
 49
0.03937007874
 74
     0
 49
-0.03937007874
 74
     0
  0
LTYPE
  5
3F89
330
5
100
AcDbSymbolTableRecord
100
AcDbLinetypeTableRecord
  2
ACANSTGL
 70
     0
  3
_ _ _ _ _
 72
    65
 73
     2
 40
0.11811023622
 49
0.07874015748
 74
     0
 49
-0.03937007874
 74
     0
  0
ENDTAB
  0
TABLE
  2
LAYER
  5
2
102
{ACAD_XDICTIONARY
360
48E1
102
}
330
0
100
AcDbSymbolTable
 70
    32
  0
LAYER
  5
E
330
2
100
AcDbSymbolTableRecord
100
AcDbLayerTableRecord
  2
0
 70
     0
 62
     7
  6
CONTINUOUS
370
    -3
390
34D9
  0
LAYER
  5
16F
330
2
100
AcDbSymbolTableRecord
100
AcDbLayerTableRecord
  2
L1
 70
     0
 62
     7
  6
CONTINUOUS
370
    -3
390
34D9
  0
LAYER
  5
194
330
2
100
AcDbSymbolTableRecord
100
AcDbLayerTableRecord
  2
L0
 70
     0
 62
     7
  6
CONTINUOUS
370
    -3
390
34D9
  0
LAYER
  5
1B0
330
2
100
AcDbSymbolTableRecord
100
AcDbLayerTableRecord
  2
DEFPOINTS
 70
     0
 62
     7
  6
CONTINUOUS
290
     0
370
    -3
390
34D9
  0
LAYER
  5
1B2
330
2
100
AcDbSymbolTableRecord
100
AcDbLayerTableRecord
  2
L11
 70
     0
 62
     7
  6
CONTINUOUS
370
    -3
390
34D9
  0
LAYER
  5
1B5
330
2
100
AcDbSymbolTableRecord
100
AcDbLayerTableRecord
  2
L12
 70
     0
 62
     7
  6
CONTINUOUS
370
    -3
390
34D9
  0
LAYER
  5
33D5
330
2
100
AcDbSymbolTableRecord
100
AcDbLayerTableRecord
  2
LREV
 70
     0
 62
    -7
  6
CONTINUOUS
370
    -3
390
34D9
  0
LAYER
  5
3B1A
330
2
100
AcDbSymbolTableRecord
100
AcDbLayerTableRecord
  2
OPEN_HMJOB_DICT
 70
     1
 62
     7
  6
CONTINUOUS
370
    -3
390
34D9
  0
LAYER
  5
3B1F
330
2
100
AcDbSymbolTableRecord
100
AcDbLayerTableRecord
  2
OPEN_HMJOB
 70
     1
 62
     7
  6
CONTINUOUS
370
    -3
390
34D9
  0
ENDTAB
  0
TABLE
  2
STYLE
  5
3
330
0
100
AcDbSymbolTable
 70
     6
  0
STYLE
  5
F
330
3
100
AcDbSymbolTableRecord
100
AcDbTextStyleTableRecord
  2
STANDARD
 70
     0
 40
0.0
 41
1.0
 50
0.0
 71
     0
 42
0.14
  3
txt.shx
  4

  0
STYLE
  5
34EA
330
3
100
AcDbSymbolTableRecord
100
AcDbTextStyleTableRecord
  2

 70
     1
 40
0.0
 41
1.0
 50
0.0
 71
     0
 42
0.06
  3
ltypeshp.shx
  4

  0
STYLE
  5
3F7B
330
3
100
AcDbSymbolTableRecord
100
AcDbTextStyleTableRecord
  2
ACANSTS
 70
     0
 40
1.0
 41
1.0
 50
0.0
 71
     0
 42
0.06
  3
romans.shx
  4

  0
STYLE
  5
3F87
330
3
100
AcDbSymbolTableRecord
100
AcDbTextStyleTableRecord
  2
ACANSGDT
 70
     0
 40
0.0
 41
1.0
 50
0.0
 71
     0
 42
0.06
  3
amgdtans.shx
  4

  0
ENDTAB
  0
TABLE
  2
VIEW
  5
6
330
0
100
AcDbSymbolTable
 70
     1
  0
VIEW
  5
16C
330
6
100
AcDbSymbolTableRecord
100
AcDbViewTableRecord
  2
A
 70
     0
 40
4.116852747539287
 10
13.28074460069535
 20
5.171205856827663
 41
5.401133207130848
 11
0.0
 21
0.0
 31
1.0
 12
0.0
 22
0.0
 32
0.0
 42
50.0
 43
0.0
 44
0.0
 50
0.0
 71
     0
281
     0
 72
     0
  0
ENDTAB
  0
TABLE
  2
UCS
  5
7
330
0
100
AcDbSymbolTable
 70
     0
  0
ENDTAB
  0
TABLE
  2
APPID
  5
9
330
0
100
AcDbSymbolTable
 70
    18
  0
APPID
  5
10
330
9
100
AcDbSymbolTableRecord
100
AcDbRegAppTableRecord
  2
ACAD
 70
     0
  0
APPID
  5
3079
330
9
100
AcDbSymbolTableRecord
100
AcDbRegAppTableRecord
  2
MCAD_NO_VIS
 70
     0
  0
APPID
  5
307A
330
9
100
AcDbSymbolTableRecord
100
AcDbRegAppTableRecord
  2
ACAD_TEMP_GRAPHIC
 70
     0
  0
APPID
  5
30BC
330
9
100
AcDbSymbolTableRecord
100
AcDbRegAppTableRecord
  2
AD_DRAW
 70
     0
  0
APPID
  5
30D7
330
9
100
AcDbSymbolTableRecord
100
AcDbRegAppTableRecord
  2
DESIGNERASSEMBLIES
 70
     0
  0
APPID
  5
3117
330
9
100
AcDbSymbolTableRecord
100
AcDbRegAppTableRecord
  2
ASURF_PCURVE_APPNAME
 70
     0
  0
APPID
  5
34EF
330
9
100
AcDbSymbolTableRecord
100
AcDbRegAppTableRecord
  2
GENIUS_GENDIM_13
 70
     0
  0
APPID
  5
34F0
330
9
100
AcDbSymbolTableRecord
100
AcDbRegAppTableRecord
  2
GENIUS_GENDTOL_13
 70
     0
  0
APPID
  5
34F1
330
9
100
AcDbSymbolTableRecord
100
AcDbRegAppTableRecord
  2
GENIUS_GE3DTOL_13
 70
     0
  0
APPID
  5
34F8
330
9
100
AcDbSymbolTableRecord
100
AcDbRegAppTableRecord
  2
ACATTRIBSERVICES
 70
     0
  0
APPID
  5
3514
330
9
100
AcDbSymbolTableRecord
100
AcDbRegAppTableRecord
  2
ACADM_DIM_EDIT
 70
     0
  0
APPID
  5
3B19
330
9
100
AcDbSymbolTableRecord
100
AcDbRegAppTableRecord
  2
HYPERCAM
 70
     0
  0
APPID
  5
3F60
330
9
100
AcDbSymbolTableRecord
100
AcDbRegAppTableRecord
  2
AMG_3D2D_5.0
 70
     0
  0
APPID
  5
3F74
330
9
100
AcDbSymbolTableRecord
100
AcDbRegAppTableRecord
  2
AMDT_DM_ADJ
 70
     0
  0
APPID
  5
3F99
330
9
100
AcDbSymbolTableRecord
100
AcDbRegAppTableRecord
  2
GENIUS_GENSCREG_15
 70
     0
  0
APPID
  5
3F9A
330
9
100
AcDbSymbolTableRecord
100
AcDbRegAppTableRecord
  2
GENIUS_GENODEF_13
 70
     0
  0
APPID
  5
3F9B
330
9
100
AcDbSymbolTableRecord
100
AcDbRegAppTableRecord
  2
GENIUS_GENOBJ-N-SDF_13
 70
     0
  0
APPID
  5
42A6
330
9
100
AcDbSymbolTableRecord
100
AcDbRegAppTableRecord
  2
ACAD_DSTYLE_DIMTEXT_FILL
 70
     0
  0
ENDTAB
  0
TABLE
  2
DIMSTYLE
  5
A
330
0
100
AcDbSymbolTable
 70
     9
100
AcDbDimStyleTable
 71
     1
340
3076
  0
DIMSTYLE
105
3076
102
{ACAD_REACTORS
330
39F4
330
39FA
330
3A01
102
}
330
A
100
AcDbSymbolTableRecord
100
AcDbDimStyleTableRecord
  2
STANDARD
 70
     0
340
F
  0
DIMSTYLE
105
3F8D
330
A
100
AcDbSymbolTableRecord
100
AcDbDimStyleTableRecord
  2
AM_ANSI
 70
     0
  4
mm
 41
0.1
 42
0.05
 43
0.5
 44
0.1
 47
0.1
 48
0.1
 78
     7
 79
     2
140
0.12
141
0.0
146
0.71
147
0.06
176
   256
177
   256
178
     2
274
     4
284
     7
340
F
371
    -1
372
    -1
  0
DIMSTYLE
105
3F8E
330
A
100
AcDbSymbolTableRecord
100
AcDbDimStyleTableRecord
  2
AM_ANSI$3
 70
     0
  4
mm
 41
0.1
 42
0.05
 43
0.5
 44
0.1
 47
0.1
 48
0.1
 78
     7
 79
     2
140
0.12
141
0.0
146
0.71
147
0.06
176
   256
177
   256
178
     2
274
     4
284
     7
288
     1
289
     0
340
F
371
    -1
372
    -1
  0
DIMSTYLE
105
3F8F
330
A
100
AcDbSymbolTableRecord
100
AcDbDimStyleTableRecord
  2
AM_ANSI$4
 70
     0
  4
mm
 41
0.1
 42
0.05
 43
0.5
 44
0.1
 47
0.1
 48
0.1
 78
     7
 79
     2
140
0.12
141
0.0
146
0.71
147
0.06
176
   256
177
   256
178
     2
274
     4
284
     7
288
     1
289
     0
340
F
371
    -1
372
    -1
  0
DIMSTYLE
105
3F90
330
A
100
AcDbSymbolTableRecord
100
AcDbDimStyleTableRecord
  2
AM_ANSI$7
 70
     0
  4
mm
 41
0.1
 42
0.05
 43
0.5
 44
0.1
 47
0.1
 48
0.1
 78
     7
 79
     2
140
0.24
141
0.0
146
0.71
147
0.06
176
   256
177
   256
178
     2
274
     4
284
     7
340
F
371
    -1
372
    -1
  0
DIMSTYLE
105
3F91
330
A
100
AcDbSymbolTableRecord
100
AcDbDimStyleTableRecord
  2
AM_ANSI$SF
 70
     0
  4
mm
 41
0.1
 42
0.05
 43
0.5
 44
0.1
 47
0.1
 48
0.1
 75
     1
 76
     1
 78
     7
 79
     2
140
0.12
141
0.0
146
0.71
147
0.06
176
   256
177
   256
178
     2
274
     4
284
     7
340
F
371
    -1
372
    -1
  0
DIMSTYLE
105
3F96
330
A
100
AcDbSymbolTableRecord
100
AcDbDimStyleTableRecord
  2
AM_ANSI$SH
 70
     0
  4
mm
 41
0.1
 42
0.05
 43
0.5
 44
0.1
 47
0.1
 48
0.1
 75
     1
 76
     1
 78
     7
 79
     2
140
0.12
141
0.0
146
0.71
147
0.06
173
     1
176
   256
177
   256
178
     2
274
     4
284
     7
340
F
341
3F92
343
3F92
371
    -1
372
    -1
  0
ENDTAB
  0
TABLE
  2
BLOCK_RECORD
  5
1
330
0
100
AcDbSymbolTable
 70
   404
  0
BLOCK_RECORD
  5
17
102
{ACAD_XDICTIONARY
360
311D
102
}
330
1
100
AcDbSymbolTableRecord
100
AcDbBlockTableRecord
  2
*MODEL_SPACE
340
34DC
  0
BLOCK_RECORD
  5
14
330
1
100
AcDbSymbolTableRecord
100
AcDbBlockTableRecord
  2
*PAPER_SPACE
340
34DD
  0
BLOCK_RECORD
  5
1C
330
1
100
AcDbSymbolTableRecord
100
AcDbBlockTableRecord
  2
BORDER
340
0
102
{BLKREFS
331
1DFF
102
}
  0
BLOCK_RECORD
  5
39CC
330
1
100
AcDbSymbolTableRecord
100
AcDbBlockTableRecord
  2
*D284
340
0
  0
BLOCK_RECORD
  5
39D9
330
1
100
AcDbSymbolTableRecord
100
AcDbBlockTableRecord
  2
*D285
340
0
  0
BLOCK_RECORD
  5
39E6
330
1
100
AcDbSymbolTableRecord
100
AcDbBlockTableRecord
  2
*D286
340
0
  0
BLOCK_RECORD
  5
3F92
330
1
100
AcDbSymbolTableRecord
100
AcDbBlockTableRecord
  2
GENAXEH
340
0
  0
BLOCK_RECORD
  5
47DF
330
1
100
AcDbSymbolTableRecord
100
AcDbBlockTableRecord
  2
*U327
340
0
  0
ENDTAB
  0
ENDSEC
  0
SECTION
  2
BLOCKS
  0
BLOCK
  5
1C3
330
17
100
AcDbEntity
  8
0
 62
     7
100
AcDbBlockBegin
  2
*MODEL_SPACE
 70
     0
 10
0.0
 20
0.0
 30
0.0
  3
*MODEL_SPACE
  1

  0
ENDBLK
  5
1C4
330
17
100
AcDbEntity
  8
0
 62
     7
100
AcDbBlockEnd
  0
BLOCK
  5
1C1
330
14
100
AcDbEntity
 67
     1
  8
0
 62
     7
100
AcDbBlockBegin
  2
*PAPER_SPACE
 70
     0
 10
0.0
 20
0.0
 30
0.0
  3
*PAPER_SPACE
  1

  0
ENDBLK
  5
1C2
330
14
100
AcDbEntity
 67
     1
  8
0
 62
     7
100
AcDbBlockEnd
  0
BLOCK
  5
1C7
330
1C
100
AcDbEntity
  8
0
 62
     7
100
AcDbBlockBegin
  2
BORDER
 70
     0
 10
0.0
 20
0.0
 30
0.0
  3
BORDER
  1

  0
LINE
  5
1C8
330
1C
100
AcDbEntity
  8
0
100
AcDbLine
 10
0.0
 20
0.0
 30
0.0
 11
1.00000000000004
 21
0.0
 31
0.0
  0
LINE
  5
1C9
330
1C
100
AcDbEntity
  8
0
100
AcDbLine
 10
1.00000000000004
 20
0.0
 30
0.0
 11
1.00000000000004
 21
1.00000000000004
 31
0.0
  0
LINE
  5
1CA
330
1C
100
AcDbEntity
  8
0
100
AcDbLine
 10
1.00000000000004
 20
1.00000000000004
 30
0.0
 11
0.0
 21
1.00000000000004
 31
0.0
  0
LINE
  5
1CB
330
1C
100
AcDbEntity
  8
0
100
AcDbLine
 10
0.0
 20
1.00000000000004
 30
0.0
 11
0.0
 21
0.0
 31
0.0
  0
ENDBLK
  5
1CC
330
1C
100
AcDbEntity
  8
0
100
AcDbBlockEnd
  0
BLOCK
  5
39D7
330
39CC
100
AcDbEntity
  8
L12
 62
     7
100
AcDbBlockBegin
  2
*D284
 70
     1
 10
0.0
 20
0.0
 30
0.0
  3
*D284
  1

  0
LINE
  5
39CD
330
39CC
100
AcDbEntity
  8
0
  6
ByBlock
 62
     0
100
AcDbLine
 10
13.89156231278624
 20
8.858579134457126
 30
0.0
 11
14.21939893229493
 21
8.858579134457126
 31
0.0
  0
LINE
  5
39CE
330
39CC
100
AcDbEntity
  8
0
  6
ByBlock
 62
     0
100
AcDbLine
 10
13.47747395269313
 20
8.014177834457022
 30
0.0
 11
14.21939893229493
 21
8.014177834457022
 31
0.0
  0
LINE
  5
39CF
330
39CC
100
AcDbEntity
  8
0
  6
ByBlock
 62
     0
100
AcDbLine
 10
14.18939893229492
 20
8.828579134457129
 30
0.0
 11
14.18939893229492
 21
8.526378484457076
 31
0.0
  0
LINE
  5
39D0
330
39CC
100
AcDbEntity
  8
0
  6
ByBlock
 62
     0
100
AcDbLine
 10
14.18939893229492
 20
8.044177834457022
 30
0.0
 11
14.18939893229492
 21
8.346378484457074
 31
0.0
  0
SOLID
  5
39D1
330
39CC
100
AcDbEntity
  8
0
  6
ByBlock
 62
     0
100
AcDbTrace
 10
14.19439893229492
 20
8.828579134457129
 30
0.0
 11
14.18439893229495
 21
8.828579134457129
 31
0.0
 12
14.18939893229492
 22
8.858579134457126
 32
0.0
 13
14.18939893229492
 23
8.858579134457126
 33
0.0
  0
SOLID
  5
39D2
330
39CC
100
AcDbEntity
  8
0
  6
ByBlock
 62
     0
100
AcDbTrace
 10
14.19439893229492
 20
8.044177834457022
 30
0.0
 11
14.18439893229495
 21
8.044177834457022
 31
0.0
 12
14.18939893229492
 22
8.014177834457022
 32
0.0
 13
14.18939893229492
 23
8.014177834457022
 33
0.0
  0
TEXT
  5
39D3
330
39CC
100
AcDbEntity
  8
0
  6
ByBlock
 62
     0
100
AcDbText
 10
14.02939893229492
 20
8.376378484457076
 30
0.0
 40
0.12
  1
.500
100
AcDbText
  0
POINT
  5
39D4
330
39CC
100
AcDbEntity
  8
DEFPOINTS
  6
ByBlock
 62
     0
100
AcDbPoint
 10
13.82906231278623
 20
8.858579134457126
 30
0.0
  0
POINT
  5
39D5
330
39CC
100
AcDbEntity
  8
DEFPOINTS
  6
ByBlock
 62
     0
100
AcDbPoint
 10
13.41497395269313
 20
8.014177834457022
 30
0.0
  0
POINT
  5
39D6
330
39CC
100
AcDbEntity
  8
DEFPOINTS
  6
ByBlock
 62
     0
100
AcDbPoint
 10
14.18939893229492
 20
8.014177834457022
 30
0.0
  0
ENDBLK
  5
39D8
330
39CC
100
AcDbEntity
  8
L12
 62
     7
100
AcDbBlockEnd
  0
BLOCK
  5
39E4
330
39D9
100
AcDbEntity
  8
L12
 62
     7
100
AcDbBlockBegin
  2
*D285
 70
     1
 10
0.0
 20
0.0
 30
0.0
  3
*D285
  1

  0
LINE
  5
39DA
330
39D9
100
AcDbEntity
  8
0
  6
ByBlock
 62
     0
100
AcDbLine
 10
13.76974948136589
 20
7.988614882379422
 30
0.0
 11
13.76974948136589
 21
7.531616946087298
 31
0.0
  0
LINE
  5
39DB
330
39D9
100
AcDbEntity
  8
0
  6
ByBlock
 62
     0
100
AcDbLine
 10
12.5052626442071
 20
7.988614882379422
 30
0.0
 11
12.5052626442071
 21
7.531616946087298
 31
0.0
  0
LINE
  5
39DC
330
39D9
100
AcDbEntity
  8
0
  6
ByBlock
 62
     0
100
AcDbLine
 10
13.71974948136589
 20
7.561616946087298
 30
0.0
 11
13.32750606278649
 21
7.561616946087298
 31
0.0
  0
LINE
  5
39DD
330
39D9
100
AcDbEntity
  8
0
  6
ByBlock
 62
     0
100
AcDbLine
 10
12.55526264420709
 20
7.561616946087298
 30
0.0
 11
12.94750606278649
 21
7.561616946087298
 31
0.0
  0
SOLID
  5
39DE
330
39D9
100
AcDbEntity
  8
0
  6
ByBlock
 62
     0
100
AcDbTrace
 10
13.71974948136589
 20
7.553283612753963
 30
0.0
 11
13.71974948136589
 21
7.569950279420631
 31
0.0
 12
13.76974948136589
 22
7.561616946087298
 32
0.0
 13
13.76974948136589
 23
7.561616946087298
 33
0.0
  0
SOLID
  5
39DF
330
39D9
100
AcDbEntity
  8
0
  6
ByBlock
 62
     0
100
AcDbTrace
 10
12.55526264420709
 20
7.553283612753963
 30
0.0
 11
12.55526264420709
 21
7.569950279420631
 31
0.0
 12
12.5052626442071
 22
7.561616946087298
 32
0.0
 13
12.5052626442071
 23
7.561616946087298
 33
0.0
  0
TEXT
  5
39E0
330
39D9
100
AcDbEntity
  8
0
  6
ByBlock
 62
     0
100
AcDbText
 10
12.99750606278649
 20
7.531616946087298
 30
0.0
 40
0.06
  1
1.2645
100
AcDbText
  0
POINT
  5
39E1
330
39D9
100
AcDbEntity
  8
DEFPOINTS
  6
ByBlock
 62
     0
100
AcDbPoint
 10
13.76974948136589
 20
8.051114882379422
 30
0.0
  0
POINT
  5
39E2
330
39D9
100
AcDbEntity
  8
DEFPOINTS
  6
ByBlock
 62
     0
100
AcDbPoint
 10
12.5052626442071
 20
8.051114882379422
 30
0.0
  0
POINT
  5
39E3
330
39D9
100
AcDbEntity
  8
DEFPOINTS
  6
ByBlock
 62
     0
100
AcDbPoint
 10
12.5052626442071
 20
7.561616946087298
 30
0.0
  0
ENDBLK
  5
39E5
330
39D9
100
AcDbEntity
  8
L12
 62
     7
100
AcDbBlockEnd
  0
BLOCK
  5
39F1
330
39E6
100
AcDbEntity
  8
L12
 62
     7
100
AcDbBlockBegin
  2
*D286
 70
     1
 10
0.0
 20
0.0
 30
0.0
  3
*D286
  1

  0
LINE
  5
39E7
330
39E6
100
AcDbEntity
  8
0
  6
ByBlock
 62
     0
100
AcDbLine
 10
13.07500606278649
 20
8.014177834457019
 30
0.0
 11
12.20968463966954
 21
8.014177834457019
 31
0.0
  0
LINE
  5
39E8
330
39E6
100
AcDbEntity
  8
0
  6
ByBlock
 62
     0
100
AcDbLine
 10
12.3904498127869
 20
8.067136534457146
 30
0.0
 11
12.20968463966954
 21
8.067136534457146
 31
0.0
  0
LINE
  5
39E9
330
39E6
100
AcDbEntity
  8
0
  6
ByBlock
 62
     0
100
AcDbLine
 10
12.23968463966953
 20
8.117136534457149
 30
0.0
 11
12.23968463966953
 21
8.167136534457146
 31
0.0
  0
LINE
  5
39EA
330
39E6
100
AcDbEntity
  8
0
  6
ByBlock
 62
     0
100
AcDbLine
 10
12.23968463966953
 20
7.964177834457021
 30
0.0
 11
12.23968463966953
 21
7.914177834457022
 31
0.0
  0
SOLID
  5
39EB
330
39E6
100
AcDbEntity
  8
0
  6
ByBlock
 62
     0
100
AcDbTrace
 10
12.24801797300287
 20
8.117136534457149
 30
0.0
 11
12.2313513063362
 21
8.117136534457149
 31
0.0
 12
12.23968463966953
 22
8.067136534457146
 32
0.0
 13
12.23968463966953
 23
8.067136534457146
 33
0.0
  0
SOLID
  5
39EC
330
39E6
100
AcDbEntity
  8
0
  6
ByBlock
 62
     0
100
AcDbTrace
 10
12.24801797300287
 20
7.964177834457021
 30
0.0
 11
12.2313513063362
 21
7.964177834457021
 31
0.0
 12
12.23968463966953
 22
8.014177834457019
 32
0.0
 13
12.23968463966953
 23
8.014177834457019
 33
0.0
  0
TEXT
  5
39ED
330
39E6
100
AcDbEntity
  8
0
  6
ByBlock
 62
     0
100
AcDbText
 10
12.26968463966954
 20
8.217136534457145
 30
0.0
 40
0.06
  1
0.0530
 50
90.0
100
AcDbText
  0
POINT
  5
39EE
330
39E6
100
AcDbEntity
  8
DEFPOINTS
  6
ByBlock
 62
     0
100
AcDbPoint
 10
13.13750606278649
 20
8.014177834457019
 30
0.0
  0
POINT
  5
39EF
330
39E6
100
AcDbEntity
  8
DEFPOINTS
  6
ByBlock
 62
     0
100
AcDbPoint
 10
12.4529498127869
 20
8.067136534457146
 30
0.0
  0
POINT
  5
39F0
330
39E6
100
AcDbEntity
  8
DEFPOINTS
  6
ByBlock
 62
     0
100
AcDbPoint
 10
12.23968463966953
 20
8.067136534457146
 30
0.0
  0
ENDBLK
  5
39F2
330
39E6
100
AcDbEntity
  8
L12
 62
     7
100
AcDbBlockEnd
  0
BLOCK
  5
3F94
330
3F92
100
AcDbEntity
  8
0
 62
     7
100
AcDbBlockBegin
  2
GENAXEH
 70
     0
 10
0.0
 20
0.0
 30
0.0
  3
GENAXEH
  1

  0
LINE
  5
3F93
330
3F92
100
AcDbEntity
  8
0
100
AcDbLine
 10
-1.0
 20
0.0
 30
0.0
 11
1.0
 21
0.0
 31
0.0
  0
ENDBLK
  5
3F95
330
3F92
100
AcDbEntity
  8
0
 62
     7
100
AcDbBlockEnd
  0
BLOCK
  5
47E0
330
47DF
100
AcDbEntity
  8
0
 62
     7
100
AcDbBlockBegin
  2
*U327
 70
     1
 10
0.0
 20
0.0
 30
0.0
  3
*U327
  1

  0
ENDBLK
  5
47E1
330
47DF
100
AcDbEntity
  8
0
 62
     7
100
AcDbBlockEnd
  0
ENDSEC
  0
SECTION
  2
ENTITIES
  0
INSERT
  5
1DFF
330
17
100
AcDbEntity
  8
L0
100
AcDbBlockReference
  2
BORDER
 10
0.0
 20
0.0
 30
0.0
 41
17.0
 42
11.0
 43
17.0
  0
LINE
  5
1E02
330
17
100
AcDbEntity
  8
L0
100
AcDbLine
 10
0.25
 20
0.25
 30
0.0
 11
0.25
 21
10.74999999999999
 31
0.0
  0
LINE
  5
1E03
330
17
100
AcDbEntity
  8
L0
100
AcDbLine
 10
0.25
 20
10.74999999999999
 30
0.0
 11
16.75
 21
10.74999999999999
 31
0.0
  0
LINE
  5
1E04
330
17
100
AcDbEntity
  8
L0
100
AcDbLine
 10
16.75
 20
10.74999999999999
 30
0.0
 11
16.75
 21
0.25
 31
0.0
  0
LINE
  5
1E05
330
17
100
AcDbEntity
  8
L0
100
AcDbLine
 10
16.75
 20
0.25
 30
0.0
 11
0.25
 21
0.25
 31
0.0
  0
LINE
  5
1E06
330
17
100
AcDbEntity
  8
L0
100
AcDbLine
 10
16.75
 20
2.440970327649396
 30
0.0
 11
10.74999999999999
 21
2.440970327649397
 31
0.0
  0
LINE
  5
1E07
330
17
100
AcDbEntity
  8
L0
100
AcDbLine
 10
10.74999999999999
 20
2.440970327649397
 30
0.0
 11
10.74999999999999
 21
0.25
 31
0.0
  0
LINE
  5
1E08
330
17
100
AcDbEntity
  8
L0
100
AcDbLine
 10
16.75
 20
2.0
 30
0.0
 11
10.74999999999999
 21
2.0
 31
0.0
  0
TEXT
  5
1E28
330
17
100
AcDbEntity
  8
L0
100
AcDbText
 10
10.97081655374675
 20
0.4463876453281264
 30
0.0
 40
0.2
  1
 
100
AcDbText
  0
TEXT
  5
1E95
330
17
100
AcDbEntity
  8
L0
100
AcDbText
 10
11.22856810162307
 20
1.574166903233439
 30
0.0
 40
0.2
  1
30mm PUSHBUTTON LINE
100
AcDbText
  0
TEXT
  5
1E96
330
17
100
AcDbEntity
  8
L0
100
AcDbText
 10
11.22856810162307
 20
0.9075002365667728
 30
0.0
 40
0.2
  1
CAT.  PTR
100
AcDbText
  0
TEXT
  5
1EEC
330
17
100
AcDbEntity
  8
L0
 62
     7
100
AcDbText
 10
11.20661992084382
 20
2.088456088049183
 30
0.0
 40
0.2
  1
30P10089    Outline
100
AcDbText
  0
TEXT
  5
1EED
330
17
100
AcDbEntity
  8
L0
 62
     7
100
AcDbText
 10
11.24502151793667
 20
1.242143967503082
 30
0.0
 40
0.2
  1
PUSH-TWIST-RELASE OPERATOR
100
AcDbText
  0
TEXT
  5
1F73
330
17
100
AcDbEntity
  8
L0
 62
     7
100
AcDbText
 10
12.74412139661026
 20
0.4476250811071924
 30
0.0
 40
0.2
  1
 
100
AcDbText
  0
TEXT
  5
20F0
330
17
100
AcDbEntity
  8
L0
 62
     7
100
AcDbText
 10
0.5314142702895369
 20
0.4318241998145739
 30
0.0
 40
0.2
  1
30P10089
 50
90.0
100
AcDbText
  0
TEXT
  5
302E
330
17
100
AcDbEntity
  8
L0
 62
     7
100
AcDbText
 10
4.481406082757063
 20
10.77795652556965
 30
0.0
 40
0.2
  1
30P10089
100
AcDbText
  0
LINE
  5
3411
330
17
100
AcDbEntity
  8
LREV
 62
     7
100
AcDbLine
 10
0.0
 20
0.0
 30
0.0
 11
17.00000000000067
 21
0.0
 31
0.0
  0
LINE
  5
3412
330
17
100
AcDbEntity
  8
LREV
 62
     7
100
AcDbLine
 10
17.00000000000067
 20
0.0
 30
0.0
 11
17.00000000000067
 21
-1.999999999999999
 31
0.0
  0
LINE
  5
3413
330
17
100
AcDbEntity
  8
LREV
 62
     7
100
AcDbLine
 10
0.0
 20
0.0
 30
0.0
 11
0.0
 21
-1.999999999999999
 31
0.0
  0
LINE
  5
3414
330
17
100
AcDbEntity
  8
LREV
 62
     7
100
AcDbLine
 10
2.0
 20
0.0
 30
0.0
 11
1.999999999999999
 21
-1.999999999999999
 31
0.0
  0
LINE
  5
3415
330
17
100
AcDbEntity
  8
LREV
 62
     7
100
AcDbLine
 10
0.0
 20
-1.999999999999999
 30
0.0
 11
17.00000000000067
 21
-1.999999999999999
 31
0.0
  0
LINE
  5
3416
330
17
100
AcDbEntity
  8
LREV
 62
     7
100
AcDbLine
 10
16.50000000000067
 20
0.0
 30
0.0
 11
16.50000000000067
 21
-1.999999999999999
 31
0.0
  0
TEXT
  5
3417
330
17
100
AcDbEntity
  8
LREV
 62
     7
100
AcDbText
 10
16.6329053296654
 20
-0.1923914840852832
 30
0.0
 40
0.2
  1
REVISION
 50
270.0
100
AcDbText
  0
TEXT
  5
344B
330
17
100
AcDbEntity
  8
LREV
 62
     7
100
AcDbText
 10
16.27406044691098
 20
-0.0643749135229749
 30
0.0
 40
0.0810133607763694
  1
1-  NEW DRAWING FOR
 50
270.0
100
AcDbText
  0
TEXT
  5
344C
330
17
100
AcDbEntity
  8
LREV
 62
     7
100
AcDbText
 10
16.13903817895036
 20
-0.0643749135229749
 30
0.0
 40
0.0810133607763694
  1
WEBSITE DWG. PICK
 50
270.0
100
AcDbText
  0
TEXT
  5
344D
330
17
100
AcDbEntity
  8
LREV
 62
     7
100
AcDbText
 10
16.00401591098973
 20
-0.0643749135229749
 30
0.0
 40
0.0810133607763694
  1
AND PLACE SCALE DWG
 50
270.0
100
AcDbText
  0
TEXT
  5
344E
330
17
100
AcDbEntity
  8
LREV
 62
     7
100
AcDbText
 10
15.86899364302913
 20
-0.0643749135229748
 30
0.0
 40
0.0810133607763694
  1
OF 30MM PTR
 50
270.0
100
AcDbText
  0
TEXT
  5
344F
330
17
100
AcDbEntity
  8
LREV
 62
     7
100
AcDbText
 10
15.73397137506851
 20
-0.0643749135229748
 30
0.0
 40
0.0810133607763694
  1
R. JOHNSTON  6-28-07
 50
270.0
100
AcDbText
  0
LINE
  5
3450
330
17
100
AcDbEntity
  8
LREV
 62
     7
100
AcDbLine
 10
15.6114451665119
 20
0.0
 30
0.0
 11
15.6114451665119
 21
-1.999999999999999
 31
0.0
  0
POLYLINE
  5
3B1B
330
17
100
AcDbEntity
  8
OPEN_HMJOB_DICT
 62
     7
100
AcDbPolyFaceMesh
 66
     1
 10
0.0
 20
0.0
 30
0.0
 70
    64
1001
HYPERCAM
1000
hyperMILL_DICT
1000
HMJOBLIST 3B20
1000
HMJOBSET 3B24
1000
HMJOBSYS 3B28
1000
HMJOBNCS 4724
  0
VERTEX
  5
3B1C
330
3B1B
100
AcDbEntity
  8
OPEN_HMJOB_DICT
 62
     0
100
AcDbVertex
100
AcDbPolyFaceMeshVertex
 10
0.0
 20
0.0
 30
0.0
 70
   192
  0
VERTEX
  5
3B1D
330
3B1B
100
AcDbEntity
  8
OPEN_HMJOB_DICT
 62
     0
100
AcDbVertex
100
AcDbPolyFaceMeshVertex
 10
0.0
 20
0.0
 30
0.0
 70
   192
  0
SEQEND
  5
3B1E
330
3B1B
100
AcDbEntity
  8
L1
 62
     7
  0
POLYLINE
  5
3B20
330
17
100
AcDbEntity
  8
OPEN_HMJOB
 62
     7
100
AcDbPolyFaceMesh
 66
     1
 10
0.0
 20
0.0
 30
0.0
 70
    64
1001
HYPERCAM
1000
HMJOBLIST
1000
*JOBID              1              
1000
*JOBINDEX           1              
1000
*JOBTYPE            1              
1000
*INVALID            0              
1000
*TOOLNR             1              
1000
*GEN_RIF            0              
1000
*HANDLE             3B48           
1000
*COMMENT KEY-202.WIR
1000
*UI                 hmcontui       
1000
*HC                 hmconthc       
1000
*FRAME_HANDLE                      
1000
*FRAME_ID           0              
1000
**END
1000
*JOBID              2              
1000
*JOBINDEX           1              
1000
*JOBTYPE            1              
1000
*INVALID            0              
1000
*TOOLNR             2              
1000
*GEN_RIF            0              
1000
*HANDLE             464A           
1000
*COMMENT ELEC-025.WIR
1000
*UI                 hmcontui       
1000
*HC                 hmconthc       
1000
*FRAME_HANDLE                      
1000
*FRAME_ID           0              
1000
**END
1000
*JOBID              3              
1000
*JOBINDEX           1              
1000
*JOBTYPE            1              
1000
*INVALID            0              
1000
*TOOLNR             3              
1000
*GEN_RIF            0              
1000
*HANDLE             4725           
1000
*COMMENT ELEC-025.WIR
1000
*UI                 hmcontui       
1000
*HC                 hmconthc       
1000
*FRAME_HANDLE                      
1000
*FRAME_ID           0              
1000
**END
  0
VERTEX
  5
3B21
330
3B20
100
AcDbEntity
  8
OPEN_HMJOB
 62
     0
100
AcDbVertex
100
AcDbPolyFaceMeshVertex
 10
0.0
 20
0.0
 30
0.0
 70
   192
  0
VERTEX
  5
3B22
330
3B20
100
AcDbEntity
  8
OPEN_HMJOB
 62
     0
100
AcDbVertex
100
AcDbPolyFaceMeshVertex
 10
0.0
 20
0.0
 30
0.0
 70
   192
  0
SEQEND
  5
3B23
330
3B20
100
AcDbEntity
  8
L1
 62
     7
  0
POLYLINE
  5
3B24
330
17
100
AcDbEntity
  8
OPEN_HMJOB
 62
     7
100
AcDbPolyFaceMesh
 66
     1
 10
0.0
 20
0.0
 30
0.0
 70
    64
1001
HYPERCAM
1000
HMJOBSET
1000
*APT_DIR D:\om\mill-5\POF^J
1000
*3DF_DIR D:\om\mill-5\3DF^J
1000
*TMP_DIR D:\om\mill-5\TMP^J
1000
*NC_DIR D:\om\mill-5\NC^J
1000
*TOOLDB_DIR D:\om\mill-5\TOOLDB^J
1000
*MAC_DIR D:\om\mill-5\MAC^J
1000
*TOOL_DIR D:\om\mill-5\TOOLDB^J
1000
*APT D:\om\mill-5\POF\30P10025-L1.POF^J
1000
*REPORT D:\om\mill-5\TMP\30P10025-L1.REP^J
1000
*MOD_NAME           30P10025-L1^J
1000
*A1^J
1000
*A2^J
1000
*A3^J
1000
*A4^J
1000
*A5^J
1000
*A6^J
1000
*A7^J
1000
*A8^J
1000
*A9^J
1000
*A10^J
1000
*REPORT_CLASS       2^J
1000
*TOOL_TIP           1^J
1000
*DEL_PRFBDY         1^J
1000
*DEL_APPROX         1^J
1000
*NCKO_O             40.660745635400 9.647865012443 0.000000000000^J
1000
*NCKO_X             1.000000000000 0.000000000000 0.000000000000^J
1000
*NCKO_Y             0.000000000000 1.000000000000 0.000000000000^J
1000
*NCKO_Z             0.000000000000 0.000000000000 1.000000000000^J
1000
*X11                1^J
1000
*LOC_DIR^J
1000
*DRILL_OPT          1^J
1000
*RGB_TOP            0.000000000000 0.000000000000 1.000000000000^J
1000
*RGB_BOTTOM         1.000000000000 1.000000000000 0.000000000000^J
1000
*RGB_CLEARANCE      1.000000000000 0.000000000000 0.000000000000^J
1000
*RGB_G0             1.000000000000 0.000000000000 0.000000000000^J
1000
*RGB_G1             1.000000000000 1.000000000000 0.000000000000^J
1000
*RGB_BND            1.000000000000 0.000000000000 1.000000000000^J
1000
*RGB_PRF            0.000000000000 0.000000000000 1.000000000000^J
1000
*RGB_STARTPOINT     1.000000000000 0.000000000000 0.000000000000^J
1000
*RGB_NCS            1.000000000000 1.000000000000 0.000000000000^J
1000
*RGB_TCS            0.000000000000 1.000000000000 0.000000000000^J
1000
*INCH_MODE          1^J
1000
*INCH               1^J
1000
*WKZNUMMER          1^J
1000
*UPDATE             0^J
1000
*CHORD_TOLERANCE    0.0004^J
1000
*SAVE_DWG           0^J
1000
*WINHELP            1^J
1000
*NCS_RESCALE        0^J
1000
*NIGHTSHIFT_DIR D:\om\mill-5\nshift^J
1000
*RESOLVE_MODE       1^J
1000
*SINGLEPOF_MODE     0^J
1000
*OVERWRITE_POF      1^J
1000
*CYCLE_GROUP        1^J
1000
*JOB_DIR D:\om\mill-5\JOB^J
1000
*RUN_MODE           0^J
1000
*JOB_GEO_USE        0^J
1000
*DEMO_MODE          0^J
1000
*CHECK_TOOL         0^J
1000
*CHECK_FILE         1^J
1000
*IGNORE_GEOMETRY    0^J
1000
*JOB_SORT_MODE      1^J
1000
*HYPERWORK          0^J
1000
*JOB_ACT            2^J
1000
*SEL_MODE           1^J
  0
VERTEX
  5
3B25
330
3B24
100
AcDbEntity
  8
OPEN_HMJOB
 62
     0
100
AcDbVertex
100
AcDbPolyFaceMeshVertex
 10
0.0
 20
0.0
 30
0.0
 70
   192
  0
VERTEX
  5
3B26
330
3B24
100
AcDbEntity
  8
OPEN_HMJOB
 62
     0
100
AcDbVertex
100
AcDbPolyFaceMeshVertex
 10
0.0
 20
0.0
 30
0.0
 70
   192
  0
SEQEND
  5
3B27
330
3B24
100
AcDbEntity
  8
L1
 62
     7
  0
POLYLINE
  5
3B28
330
17
100
AcDbEntity
  8
OPEN_HMJOB
 62
     7
100
AcDbPolyFaceMesh
 66
     1
 10
0.0
 20
0.0
 30
0.0
 70
    64
1001
HYPERCAM
1000
HMJOBSYS
1000
*NAME_3DF D:\om\mill-5\3DF\30P10025-L1.3df
1000
*TOOLNR 3
1000
*GEN_RIF 0
1000
*OBERFL 0.000000
1000
*TIEF -0.412000
1000
*POF D:\om\mill-5\POF\30P10025-L1.POF
1000
*TMP_DIR D:\om\mill-5\TMP
1000
*FRAME_HANDLE 
1000
*FRAME_ID 0
1000
*SICHDIST 0.200000
1000
*SICHEBENE 0.500000
  0
VERTEX
  5
3B29
330
3B28
100
AcDbEntity
  8
OPEN_HMJOB
 62
     0
100
AcDbVertex
100
AcDbPolyFaceMeshVertex
 10
0.0
 20
0.0
 30
0.0
 70
   192
  0
VERTEX
  5
3B2A
330
3B28
100
AcDbEntity
  8
OPEN_HMJOB
 62
     0
100
AcDbVertex
100
AcDbPolyFaceMeshVertex
 10
0.0
 20
0.0
 30
0.0
 70
   192
  0
SEQEND
  5
3B2B
330
3B28
100
AcDbEntity
  8
L1
 62
     7
  0
POLYLINE
  5
3B48
330
17
100
AcDbEntity
  8
OPEN_HMJOB
 62
     7
100
AcDbPolyFaceMesh
 66
     1
 10
0.0
 20
0.0
 30
0.0
 70
    64
1001
HYPERCAM
1000
D:\om\mill-5\hmcont.cfg
1000
*GEN_RIF 0^J
1000
*EPSILON 0.0001^J
1000
*START 0 0 0^J
1000
*SEITE -1^J
1000
*AUFMASS 0^J
1000
*OBERFL 0^J
1000
*TIEF -0.4^J
1000
*SICHDIST 0.2^J
1000
*SICHEBENE 4^J
1000
*FRTYP 2^J
1000
*FRRADIUS 0.0053^J
1000
*FRLAENGE 0^J
1000
*XVORSCHUB 20^J
1000
*ZVORSCHUB 5^J
1000
*HORIZUSTEL 1^J
1000
*VERTZUSTEL 0.4^J
1000
*DREHZAHL 1200^J
1000
*WKZNUMMER 1^J
1000
*DREHRICHT 1^J
1000
*KUEHLMITTEL 1^J
1000
*WZKO_O 17.6337 2.90407 0^J
1000
*WZKO_X 1 0 0^J
1000
*WZKO_Y 0 1 0^J
1000
*WZKO_Z 0 0 1^J
1000
*MACRO_START 0^J
1000
*MACRO_END 3^J
1000
*MACRO_SRAD 0.02^J
1000
*MACRO_ERAD 0.02^J
1000
*AUFMASS_Z 0^J
1000
*JOBID 1^J
1000
*REVERSE_ALL 0^J
1000
*COMPENSATE 0^J
1000
*TOP_REF 0^J
1000
*BOTTOM_REF 0^J
1000
*WINHELP 1^J
1000
*FRBOGEN 0.04^J
1000
*WALL_ANGLE 0^J
1000
*TOTAL_TOOL_LENGTH 6^J
1000
*CUTTING_LENGTH 3^J
1000
*LENGTH1 0^J
1000
*DIAMETER1 0^J
1000
*LENGTH2 0^J
1000
*DIAMETER2 0^J
1000
*MAX_INFEED 0^J
1000
*TOOTH_COUNT 0^J
1000
*TOOTH_FEEDRATE 0^J
1000
*VVORSCHUB 15^J
1000
*RVORSCHUB 0^J
1000
*FRAME_HANDLE^J
1000
*TOOL_TYPE_S standard tool^J
1000
*TOOL_CHECK 1^J
1000
*MATERIAL^J
1000
*END_POINT 0 0 0^J
1000
*PLANE_RETRACT 1^J
1000
*HYPERWORK 0^J
1000
*FRAME_ID 0^J
1000
*CAST_OFFSET 0^J
1000
*INFEED_FACTOR 0.5^J
1000
*PRIORITY 0^J
1000
*TAPER_HEIGHT 0^J
1000
*TAPER_ANGLE 0^J
1000
*TOOL_SEARCH 1^J
1000
*OMX_EXT H(3B17)S(1,4.9738e-013,-0.125)E(0,4.9738e-013,-0.125)P(0,0,0)O(0)R(0)^J
  0
VERTEX
  5
3B49
330
3B48
100
AcDbEntity
  8
OPEN_HMJOB
 62
     0
100
AcDbVertex
100
AcDbPolyFaceMeshVertex
 10
0.0
 20
0.0
 30
0.0
 70
   192
  0
VERTEX
  5
3B4A
330
3B48
100
AcDbEntity
  8
OPEN_HMJOB
 62
     0
100
AcDbVertex
100
AcDbPolyFaceMeshVertex
 10
0.0
 20
0.0
 30
0.0
 70
   192
  0
SEQEND
  5
3B4B
330
3B48
100
AcDbEntity
  8
L1
 62
     7
  0
TEXT
  5
3E59
330
17
100
AcDbEntity
  8
L0
 62
     7
100
AcDbText
 10
11.15765591374264
 20
10.8036833251349
 30
0.0
 40
0.14
  1
30P10089
100
AcDbText
  0
TEXT
  5
3E5A
330
17
100
AcDbEntity
  8
L0
 62
     7
100
AcDbText
 10
16.95480415618716
 20
7.652181490532155
 30
0.0
 40
0.14
  1
30P10089
 50
90.0
100
AcDbText
  0
TEXT
  5
3EE0
330
17
100
AcDbEntity
  8
LREV
 62
     7
100
AcDbText
 10
15.02442955849138
 20
-0.0643749135229748
 30
0.0
 40
0.0810133607763694
  1
 
 50
270.0
100
AcDbText
  0
MTEXT
  5
42A1
330
17
100
AcDbEntity
  8
L0
 62
     7
100
AcDbMText
 10
26.32393757105475
 20
10.12269242047697
 30
0.0
 40
0.06
 41
0.0
 71
     9
 72
     1
  1
\A1;
 73
     1
 44
1.0
  0
MTEXT
  5
42A3
330
17
100
AcDbEntity
  8
L0
 62
     7
100
AcDbMText
 10
26.39491801233923
 20
9.056484633672251
 30
0.0
 40
0.06
 41
0.0
 71
     1
 72
     1
  1
\A1;
 73
     1
 44
1.0
  0
POLYLINE
  5
464A
330
17
100
AcDbEntity
  8
OPEN_HMJOB
 62
     7
100
AcDbPolyFaceMesh
 66
     1
 10
0.0
 20
0.0
 30
0.0
 70
    64
1001
HYPERCAM
1000
D:\om\mill-5\hmcont.cfg
1000
*GEN_RIF 0^J
1000
*EPSILON 0.0001^J
1000
*START 0 0 0^J
1000
*SEITE -1^J
1000
*AUFMASS 0^J
1000
*OBERFL 0^J
1000
*TIEF -0.4^J
1000
*SICHDIST 0.2^J
1000
*SICHEBENE 4^J
1000
*FRTYP 2^J
1000
*FRRADIUS 0.0058^J
1000
*FRLAENGE 0^J
1000
*XVORSCHUB 20^J
1000
*ZVORSCHUB 20^J
1000
*HORIZUSTEL 1^J
1000
*VERTZUSTEL 0.4^J
1000
*DREHZAHL 1200^J
1000
*WKZNUMMER 2^J
1000
*DREHRICHT 1^J
1000
*KUEHLMITTEL 0^J
1000
*WZKO_O 36.8302 9.07708 0^J
1000
*WZKO_X 1 0 0^J
1000
*WZKO_Y 0 1 0^J
1000
*WZKO_Z 0 0 1^J
1000
*MACRO_START 0^J
1000
*MACRO_END 3^J
1000
*MACRO_SRAD 0.02^J
1000
*MACRO_ERAD 0.02^J
1000
*AUFMASS_Z 0^J
1000
*JOBID 2^J
1000
*REVERSE_ALL 0^J
1000
*COMPENSATE 0^J
1000
*TOP_REF 0^J
1000
*BOTTOM_REF 0^J
1000
*WINHELP 1^J
1000
*FRBOGEN 1^J
1000
*WALL_ANGLE 0^J
1000
*TOTAL_TOOL_LENGTH 35^J
1000
*CUTTING_LENGTH 20^J
1000
*LENGTH1 0^J
1000
*DIAMETER1 0^J
1000
*LENGTH2 0^J
1000
*DIAMETER2 0^J
1000
*MAX_INFEED 0^J
1000
*TOOTH_COUNT 0^J
1000
*TOOTH_FEEDRATE 0^J
1000
*VVORSCHUB 200^J
1000
*RVORSCHUB 0^J
1000
*FRAME_HANDLE^J
1000
*TOOL_TYPE_S standard tool^J
1000
*TOOL_CHECK 0^J
1000
*MATERIAL^J
1000
*END_POINT 0 0 0^J
1000
*PLANE_RETRACT 1^J
1000
*HYPERWORK 0^J
1000
*FRAME_ID 0^J
1000
*CAST_OFFSET 0^J
1000
*INFEED_FACTOR 0.5^J
1000
*PRIORITY 0^J
1000
*TAPER_HEIGHT 0^J
1000
*TAPER_ANGLE 0^J
1000
*MIN_LENGTH         1.0^J
1000
*OMX_EXT H(4644)S(1,4.33224e-008,0.1)E(0,4.33224e-008,0.1)P(0,0,0)O(0)R(1)^J
  0
VERTEX
  5
464B
330
464A
100
AcDbEntity
  8
OPEN_HMJOB
 62
     0
100
AcDbVertex
100
AcDbPolyFaceMeshVertex
 10
0.0
 20
0.0
 30
0.0
 70
   192
  0
VERTEX
  5
464C
330
464A
100
AcDbEntity
  8
OPEN_HMJOB
 62
     0
100
AcDbVertex
100
AcDbPolyFaceMeshVertex
 10
0.0
 20
0.0
 30
0.0
 70
   192
  0
SEQEND
  5
464D
330
464A
100
AcDbEntity
  8
L11
 62
     7
  0
POLYLINE
  5
4725
330
17
100
AcDbEntity
  8
OPEN_HMJOB
 62
     7
100
AcDbPolyFaceMesh
 66
     1
 10
0.0
 20
0.0
 30
0.0
 70
    64
1001
HYPERCAM
1000
D:\om\mill-5\hmcont.cfg
1000
*GEN_RIF 0^J
1000
*EPSILON 0.0001^J
1000
*START 0 0 0^J
1000
*SEITE 1^J
1000
*AUFMASS 0^J
1000
*OBERFL 0^J
1000
*TIEF -0.412^J
1000
*SICHDIST 0.2^J
1000
*SICHEBENE 0.5^J
1000
*FRTYP 2^J
1000
*FRRADIUS 0.1875^J
1000
*FRLAENGE 0^J
1000
*XVORSCHUB 20^J
1000
*ZVORSCHUB 20^J
1000
*HORIZUSTEL 1^J
1000
*VERTZUSTEL 0.05^J
1000
*DREHZAHL 1200^J
1000
*WKZNUMMER 3^J
1000
*DREHRICHT 1^J
1000
*KUEHLMITTEL 0^J
1000
*WZKO_O 40.6607 9.64786 0^J
1000
*WZKO_X 1 0 0^J
1000
*WZKO_Y 0 1 0^J
1000
*WZKO_Z 0 0 1^J
1000
*MACRO_START 3^J
1000
*MACRO_END 3^J
1000
*MACRO_SRAD 0.2^J
1000
*MACRO_ERAD 0.2^J
1000
*AUFMASS_Z 0^J
1000
*JOBID 3^J
1000
*REVERSE_ALL 0^J
1000
*COMPENSATE 0^J
1000
*TOP_REF 0^J
1000
*BOTTOM_REF 0^J
1000
*WINHELP 1^J
1000
*FRBOGEN 1^J
1000
*WALL_ANGLE 0^J
1000
*TOTAL_TOOL_LENGTH 35^J
1000
*CUTTING_LENGTH 20^J
1000
*LENGTH1 0^J
1000
*DIAMETER1 0^J
1000
*LENGTH2 0^J
1000
*DIAMETER2 0^J
1000
*MAX_INFEED 0^J
1000
*TOOTH_COUNT 0^J
1000
*TOOTH_FEEDRATE 0^J
1000
*VVORSCHUB 200^J
1000
*RVORSCHUB 0^J
1000
*FRAME_HANDLE^J
1000
*TOOL_TYPE_S standard tool^J
1000
*TOOL_CHECK 0^J
1000
*MATERIAL^J
1000
*END_POINT 0 0 0^J
1000
*PLANE_RETRACT 1^J
1000
*HYPERWORK 0^J
1000
*FRAME_ID 0^J
1000
*CAST_OFFSET 0^J
1000
*INFEED_FACTOR 0.5^J
1000
*PRIORITY 0^J
1000
*TAPER_HEIGHT 0^J
1000
*TAPER_ANGLE 0^J
1000
*MIN_LENGTH         1.0^J
1000
*OMX_EXT H(471F)S(1,-0.8165,1.24428e-008)E(0,-0.8165,1.24428e-008)P(0,0,0)O(0)R(0)^J
  0
VERTEX
  5
4726
330
4725
100
AcDbEntity
  8
OPEN_HMJOB
 62
     0
100
AcDbVertex
100
AcDbPolyFaceMeshVertex
 10
0.0
 20
0.0
 30
0.0
 70
   192
  0
VERTEX
  5
4727
330
4725
100
AcDbEntity
  8
OPEN_HMJOB
 62
     0
100
AcDbVertex
100
AcDbPolyFaceMeshVertex
 10
0.0
 20
0.0
 30
0.0
 70
   192
  0
SEQEND
  5
4728
330
4725
100
AcDbEntity
  8
L11
 62
     7
  0
TEXT
  5
48E5
330
17
100
AcDbEntity
  8
L0
100
AcDbText
 10
11.20918906951135
 20
0.59751038000135
 30
0.0
 40
0.2
  1
OUTLINE DRAWING
100
AcDbText
  0
LINE
  5
4FB9
330
17
100
AcDbEntity
  8
L1
  6
CENTER
 62
     1
100
AcDbLine
 10
3.842847040090411
 20
8.657889095474857
 30
0.0
 11
6.197215293469589
 21
8.657889095474857
 31
0.0
  0
LINE
  5
4FBA
330
17
100
AcDbEntity
  8
L1
  6
Continuous
 62
     1
100
AcDbLine
 10
5.01541473768102
 20
1.375759963050995
 30
0.0
 11
5.01541473768102
 21
3.682009862811824
 31
0.0
  0
LINE
  5
4FBB
330
17
100
AcDbEntity
  8
L1
  6
Continuous
 62
     1
100
AcDbLine
 10
5.01541473768102
 20
8.290983443725014
 30
0.0
 11
5.01541473768102
 21
9.160241462313328
 31
0.0
  0
LINE
  5
4FBC
330
17
100
AcDbEntity
  8
L1
  6
Continuous
 62
     1
100
AcDbLine
 10
5.015414737681019
 20
8.657889095474857
 30
0.0
 11
5.01541473768102
 21
9.798072119728246
 31
0.0
  0
LINE
  5
4FBD
330
17
100
AcDbEntity
  8
L1
  6
Continuous
 62
     1
100
AcDbLine
 10
5.01541473768102
 20
9.371090652475999
 30
0.0
 11
5.01541473768102
 21
9.560630619324989
 31
0.0
  0
CIRCLE
  5
4FF1
330
17
100
AcDbEntity
  8
L1
 62
     7
100
AcDbCircle
 10
5.01541473768102
 20
8.657889095474857
 30
0.0
 40
0.534
  0
ARC
  5
4FF2
330
17
100
AcDbEntity
  8
L1
 62
     7
100
AcDbCircle
 10
5.01541473768102
 20
8.657889095474857
 30
0.0
 40
0.706
100
AcDbArc
 50
250.6007243823642
 51
306.7583901495464
  0
LINE
  5
4FF3
330
17
100
AcDbEntity
  8
L1
 62
     7
100
AcDbLine
 10
5.394826918984138
 20
8.149949732283925
 30
0.0
 11
5.437914737681021
 21
8.092265766748049
 31
0.0
  0
LINE
  5
4FF4
330
17
100
AcDbEntity
  8
L1
 62
     7
100
AcDbLine
 10
4.819778854859508
 20
8.102328476502766
 30
0.0
 11
4.804832140552266
 21
8.059883267922568
 31
0.0
  0
LINE
  5
4FF5
330
17
100
AcDbEntity
  8
L1
 62
     7
100
AcDbLine
 10
4.614458647029465
 20
8.121107749515985
 30
0.0
 11
4.765970683353424
 21
7.949525725614014
 31
0.0
  0
LINE
  5
4FF6
330
17
100
AcDbEntity
  8
L1
 62
     7
100
AcDbLine
 10
4.819778854859508
 20
8.102328476502766
 30
0.0
 11
4.614458647029465
 21
8.121107749515985
 31
0.0
  0
ARC
  5
4FF7
330
17
100
AcDbEntity
  8
L1
 62
     7
100
AcDbCircle
 10
5.01541473768102
 20
8.657889095474857
 30
0.0
 40
0.634
100
AcDbArc
 50
250.6007243823643
 51
306.7583901495464
  0
LINE
  5
4FF8
330
17
100
AcDbEntity
  8
L1
 62
     7
100
AcDbLine
 10
4.780917397660672
 20
7.991970934194229
 30
0.0
 11
4.765970683353424
 21
7.949525725614014
 31
0.0
  0
ARC
  5
4FF9
330
17
100
AcDbEntity
  8
L1
 62
     7
100
AcDbCircle
 10
5.01541473768102
 20
8.657889095474857
 30
0.0
 40
0.706
100
AcDbArc
 50
130.6007243823643
 51
186.7583901495464
  0
LINE
  5
4FFA
330
17
100
AcDbEntity
  8
L1
 62
     7
100
AcDbLine
 10
4.385820254924023
 20
8.583278189556555
 30
0.0
 11
4.314320566030485
 21
8.574805026739335
 31
0.0
  0
LINE
  5
4FFB
330
17
100
AcDbEntity
  8
L1
 62
     7
100
AcDbLine
 10
4.632103069719737
 20
9.105095049376128
 30
0.0
 11
4.602817797973977
 21
9.139261887959406
 31
0.0
  0
LINE
  5
4FFC
330
17
100
AcDbEntity
  8
L1
 62
     7
100
AcDbLine
 10
4.75102650112881
 20
9.273517928760636
 30
0.0
 11
4.526676091434975
 21
9.228095668275962
 31
0.0
  0
LINE
  5
4FFD
330
17
100
AcDbEntity
  8
L1
 62
     7
100
AcDbLine
 10
4.632103069719737
 20
9.105095049376128
 30
0.0
 11
4.75102650112881
 21
9.273517928760636
 31
0.0
  0
ARC
  5
4FFE
330
17
100
AcDbEntity
  8
L1
 62
     7
100
AcDbCircle
 10
5.01541473768102
 20
8.657889095474857
 30
0.0
 40
0.634
100
AcDbArc
 50
130.6007243823643
 51
186.7583901495464
  0
LINE
  5
4FFF
330
17
100
AcDbEntity
  8
L1
 62
     7
100
AcDbLine
 10
4.555961363180747
 20
9.193928829692669
 30
0.0
 11
4.526676091434975
 21
9.228095668275962
 31
0.0
  0
ARC
  5
5000
330
17
100
AcDbEntity
  8
L1
 62
     7
100
AcDbCircle
 10
5.015414737681021
 20
8.657889095474857
 30
0.0
 40
0.706
100
AcDbArc
 50
10.60072438236432
 51
66.75839014954641
  0
LINE
  5
5001
330
17
100
AcDbEntity
  8
L1
 62
     7
100
AcDbLine
 10
5.265597039134899
 20
9.240439364584091
 30
0.0
 11
5.294008909331553
 21
9.306596492937188
 31
0.0
  0
LINE
  5
5002
330
17
100
AcDbEntity
  8
L1
 62
     7
100
AcDbLine
 10
5.594362288463814
 20
8.766243760545677
 30
0.0
 11
5.638594274516816
 21
8.774522130542598
 31
0.0
  0
LINE
  5
5003
330
17
100
AcDbEntity
  8
L1
 62
     7
100
AcDbLine
 10
5.680759064884786
 20
8.579041608147949
 30
0.0
 11
5.753597438254661
 21
8.796045892534595
 31
0.0
  0
LINE
  5
5004
330
17
100
AcDbEntity
  8
L1
 62
     7
100
AcDbLine
 10
5.594362288463814
 20
8.766243760545679
 30
0.0
 11
5.680759064884786
 21
8.579041608147949
 31
0.0
  0
ARC
  5
5005
330
17
100
AcDbEntity
  8
L1
 62
     7
100
AcDbCircle
 10
5.015414737681021
 20
8.657889095474857
 30
0.0
 40
0.634
100
AcDbArc
 50
10.60072438236432
 51
66.75839014954641
  0
LINE
  5
5006
330
17
100
AcDbEntity
  8
L1
 62
     7
100
AcDbLine
 10
5.709365452201641
 20
8.787767522537672
 30
0.0
 11
5.753597438254661
 21
8.796045892534595
 31
0.0
  0
CIRCLE
  5
503E
330
17
100
AcDbEntity
  8
L1
 62
     7
100
AcDbCircle
 10
5.01541473768102
 20
8.657889095474857
 30
0.0
 40
0.7545000000000001
  0
LINE
  5
51D9
330
17
100
AcDbEntity
  8
L1
 62
     1
100
AcDbLine
 10
5.015414737681027
 20
4.181301107672865
 30
0.0
 11
5.015414737681023
 21
7.179900667716196
 31
0.0
  0
LINE
  5
51DA
330
17
100
AcDbEntity
  8
L1
100
AcDbLine
 10
5.162639056324376
 20
2.09988142690282
 30
0.0
 11
4.868190419037666
 21
2.099881426902821
 31
0.0
  0
LINE
  5
51DB
330
17
100
AcDbEntity
  8
L1
100
AcDbLine
 10
4.868190419037669
 20
2.849881426902819
 30
0.0
 11
5.162639056324375
 21
2.849881426902819
 31
0.0
  0
LINE
  5
51DC
330
17
100
AcDbEntity
  8
L1
100
AcDbLine
 10
5.266562104778508
 20
2.78988142690282
 30
0.0
 11
5.413786423421862
 21
2.53488142690282
 31
0.0
  0
LINE
  5
51DD
330
17
100
AcDbEntity
  8
L1
100
AcDbLine
 10
4.764267370583533
 20
2.159881426902821
 30
0.0
 11
4.617043051940179
 21
2.41488142690282
 31
0.0
  0
LINE
  5
51DE
330
17
100
AcDbEntity
  8
L1
100
AcDbLine
 10
5.413786423421862
 20
2.414881426902819
 30
0.0
 11
5.266562104778508
 21
2.15988142690282
 31
0.0
  0
LINE
  5
51DF
330
17
100
AcDbEntity
  8
L1
100
AcDbLine
 10
4.617043051940179
 20
2.534881426902821
 30
0.0
 11
4.764267370583537
 21
2.78988142690282
 31
0.0
  0
CIRCLE
  5
5248
330
17
100
AcDbEntity
  8
L1
 62
     7
100
AcDbCircle
 10
5.009430129433432
 20
2.47488142690282
 30
0.0
 40
0.4615
  0
LINE
  5
526D
330
17
100
AcDbEntity
  8
L1
 62
     7
100
AcDbLine
 10
5.680414737681015
 20
5.67455794662608
 30
0.0
 11
5.680414737681015
 21
6.154734384436331
 31
0.0
  0
LINE
  5
526F
330
17
100
AcDbEntity
  8
L1
 62
     7
100
AcDbLine
 10
4.350414737681013
 20
5.674557946626091
 30
0.0
 11
4.350414737681013
 21
6.154734384436331
 31
0.0
  0
ARC
  5
5270
330
17
100
AcDbEntity
  8
L1
 62
     7
100
AcDbCircle
 10
5.660414737681017
 20
6.154734384436331
 30
0.0
 40
0.02
100
AcDbArc
 50
0.0
 51
89.99999999999799
  0
ARC
  5
5272
330
17
100
AcDbEntity
  8
L1
 62
     7
100
AcDbCircle
 10
4.370414737681018
 20
6.154734384436331
 30
0.0
 40
0.02
100
AcDbArc
 50
90.0
 51
180.0
  0
LINE
  5
5274
330
17
100
AcDbEntity
  8
L1
 62
     7
100
AcDbLine
 10
4.401414737681015
 20
6.174734384436334
 30
0.0
 11
4.370414737681016
 21
6.174734384436334
 31
0.0
  0
LINE
  5
5275
330
17
100
AcDbEntity
  8
L1
 62
     7
100
AcDbLine
 10
5.660414737681016
 20
6.174734384436334
 30
0.0
 11
5.629414737681017
 21
6.174734384436334
 31
0.0
  0
LINE
  5
52B0
330
17
100
AcDbEntity
  8
L1
 62
     7
100
AcDbLine
 10
5.814914737681005
 20
4.45973438443633
 30
0.0
 11
4.215914737681009
 21
4.45973438443633
 31
0.0
  0
LINE
  5
52B1
330
17
100
AcDbEntity
  8
L1
 62
     7
100
AcDbLine
 10
4.417914737681016
 20
4.994734384436334
 30
0.0
 11
4.215914737681011
 21
4.994734384436334
 31
0.0
  0
LINE
  5
52B4
330
17
100
AcDbEntity
  8
L1
 62
     7
100
AcDbLine
 10
4.417914737681015
 20
5.369734384436334
 30
0.0
 11
4.417914737681016
 21
5.384734384436349
 31
0.0
  0
LINE
  5
52B5
330
17
100
AcDbEntity
  8
L1
 62
     7
100
AcDbLine
 10
5.612914737681015
 20
5.369734384436333
 30
0.0
 11
5.612914737681016
 21
5.384734384436334
 31
0.0
  0
LINE
  5
52B8
330
17
100
AcDbEntity
  8
L1
 62
     7
100
AcDbLine
 10
5.814914737681013
 20
4.45973438443633
 30
0.0
 11
5.814914737681007
 21
4.994734384436334
 31
0.0
  0
LINE
  5
52B9
330
17
100
AcDbEntity
  8
L1
 62
     7
100
AcDbLine
 10
4.215914737681002
 20
4.45973438443633
 30
0.0
 11
4.215914737681011
 21
4.994734384436334
 31
0.0
  0
LINE
  5
52BA
330
17
100
AcDbEntity
  8
L1
 62
     7
100
AcDbLine
 10
5.814914737681007
 20
4.994734384436334
 30
0.0
 11
4.258867388624673
 21
4.994734384436334
 31
0.0
  0
LINE
  5
52E1
330
17
100
AcDbEntity
  8
L1
 62
     7
100
AcDbLine
 10
5.560414737681006
 20
6.174734384436335
 30
0.0
 11
5.560414737681009
 21
6.571734384436366
 31
0.0
  0
LINE
  5
52E2
330
17
100
AcDbEntity
  8
L1
 62
     7
100
AcDbLine
 10
4.470414737681005
 20
6.174734384436335
 30
0.0
 11
4.470414737681005
 21
6.571734384436366
 31
0.0
  0
LINE
  5
52E3
330
17
100
AcDbEntity
  8
L1
 62
     7
100
AcDbLine
 10
4.495414737681009
 20
6.771734384436328
 30
0.0
 11
5.535414737681005
 21
6.771734384436332
 31
0.0
  0
LINE
  5
52E5
330
17
100
AcDbEntity
  8
L1
 62
     7
100
AcDbLine
 10
4.236414737681004
 20
6.571734384436368
 30
0.0
 11
4.600765684349331
 21
6.571734384436368
 31
0.0
  0
LINE
  5
52E6
330
17
100
AcDbEntity
  8
L1
 62
     7
100
AcDbLine
 10
5.794414737681005
 20
6.681734384436367
 30
0.0
 11
5.794414737681005
 21
6.571734384436368
 31
0.0
  0
LINE
  5
52E7
330
17
100
AcDbEntity
  8
L1
 62
     7
100
AcDbLine
 10
4.236414737681005
 20
6.681734384436367
 30
0.0
 11
4.236414737681005
 21
6.571734384436368
 31
0.0
  0
LINE
  5
52E8
330
17
100
AcDbEntity
  8
L1
 62
     7
100
AcDbLine
 10
4.236414737681004
 20
6.681734384436367
 30
0.0
 11
5.794414737681005
 21
6.681734384436367
 31
0.0
  0
LINE
  5
52E9
330
17
100
AcDbEntity
  8
L1
 62
     7
100
AcDbLine
 10
4.495414737681009
 20
6.771734384436328
 30
0.0
 11
4.236414737681005
 21
6.681734384436367
 31
0.0
  0
LINE
  5
52EA
330
17
100
AcDbEntity
  8
L1
 62
     7
100
AcDbLine
 10
5.794414737681007
 20
6.681734384436367
 30
0.0
 11
5.535414737681005
 21
6.771734384436332
 31
0.0
  0
LINE
  5
52EB
330
17
100
AcDbEntity
  8
L1
 62
     7
100
AcDbLine
 10
5.494532092611372
 20
6.571734384436368
 30
0.0
 11
5.794414737681005
 21
6.571734384436368
 31
0.0
  0
LINE
  5
52EC
330
17
100
AcDbEntity
  8
L1
 62
     7
100
AcDbLine
 10
4.252414737681005
 20
6.681734384436367
 30
0.0
 11
4.252414737681005
 21
6.571734384436368
 31
0.0
  0
LINE
  5
52ED
330
17
100
AcDbEntity
  8
L1
 62
     7
100
AcDbLine
 10
4.268414737681005
 20
6.681734384436367
 30
0.0
 11
4.268414737681005
 21
6.571734384436368
 31
0.0
  0
LINE
  5
52EE
330
17
100
AcDbEntity
  8
L1
 62
     7
100
AcDbLine
 10
4.284414737681006
 20
6.681734384436367
 30
0.0
 11
4.284414737681006
 21
6.571734384436368
 31
0.0
  0
LINE
  5
52EF
330
17
100
AcDbEntity
  8
L1
 62
     7
100
AcDbLine
 10
4.300414737681006
 20
6.681734384436367
 30
0.0
 11
4.300414737681006
 21
6.571734384436368
 31
0.0
  0
LINE
  5
52F0
330
17
100
AcDbEntity
  8
L1
 62
     7
100
AcDbLine
 10
4.316414737681006
 20
6.681734384436367
 30
0.0
 11
4.316414737681006
 21
6.571734384436368
 31
0.0
  0
LINE
  5
52F1
330
17
100
AcDbEntity
  8
L1
 62
     7
100
AcDbLine
 10
4.332414737681006
 20
6.681734384436367
 30
0.0
 11
4.332414737681006
 21
6.571734384436368
 31
0.0
  0
LINE
  5
52F2
330
17
100
AcDbEntity
  8
L1
 62
     7
100
AcDbLine
 10
4.348414737681006
 20
6.681734384436367
 30
0.0
 11
4.348414737681006
 21
6.571734384436368
 31
0.0
  0
LINE
  5
52F3
330
17
100
AcDbEntity
  8
L1
 62
     7
100
AcDbLine
 10
4.364414737681006
 20
6.681734384436367
 30
0.0
 11
4.364414737681006
 21
6.571734384436368
 31
0.0
  0
LINE
  5
52F4
330
17
100
AcDbEntity
  8
L1
 62
     7
100
AcDbLine
 10
4.380414737681006
 20
6.681734384436367
 30
0.0
 11
4.380414737681006
 21
6.571734384436368
 31
0.0
  0
LINE
  5
52F5
330
17
100
AcDbEntity
  8
L1
 62
     7
100
AcDbLine
 10
4.396414737681006
 20
6.681734384436367
 30
0.0
 11
4.396414737681006
 21
6.571734384436368
 31
0.0
  0
LINE
  5
52F6
330
17
100
AcDbEntity
  8
L1
 62
     7
100
AcDbLine
 10
4.412414737681006
 20
6.681734384436367
 30
0.0
 11
4.412414737681006
 21
6.571734384436368
 31
0.0
  0
LINE
  5
52F7
330
17
100
AcDbEntity
  8
L1
 62
     7
100
AcDbLine
 10
4.428414737681006
 20
6.681734384436367
 30
0.0
 11
4.428414737681006
 21
6.571734384436368
 31
0.0
  0
LINE
  5
52F8
330
17
100
AcDbEntity
  8
L1
 62
     7
100
AcDbLine
 10
4.444414737681006
 20
6.681734384436367
 30
0.0
 11
4.444414737681006
 21
6.571734384436368
 31
0.0
  0
LINE
  5
52F9
330
17
100
AcDbEntity
  8
L1
 62
     7
100
AcDbLine
 10
4.460414737681006
 20
6.681734384436367
 30
0.0
 11
4.460414737681006
 21
6.571734384436368
 31
0.0
  0
LINE
  5
52FA
330
17
100
AcDbEntity
  8
L1
 62
     7
100
AcDbLine
 10
4.476414737681006
 20
6.681734384436367
 30
0.0
 11
4.476414737681006
 21
6.571734384436368
 31
0.0
  0
LINE
  5
52FB
330
17
100
AcDbEntity
  8
L1
 62
     7
100
AcDbLine
 10
4.492414737681006
 20
6.681734384436367
 30
0.0
 11
4.492414737681006
 21
6.571734384436368
 31
0.0
  0
LINE
  5
52FC
330
17
100
AcDbEntity
  8
L1
 62
     7
100
AcDbLine
 10
4.508414737681006
 20
6.681734384436367
 30
0.0
 11
4.508414737681006
 21
6.571734384436368
 31
0.0
  0
LINE
  5
52FD
330
17
100
AcDbEntity
  8
L1
 62
     7
100
AcDbLine
 10
4.524414737681006
 20
6.681734384436367
 30
0.0
 11
4.524414737681006
 21
6.571734384436368
 31
0.0
  0
LINE
  5
52FE
330
17
100
AcDbEntity
  8
L1
 62
     7
100
AcDbLine
 10
4.540414737681006
 20
6.681734384436367
 30
0.0
 11
4.540414737681006
 21
6.571734384436368
 31
0.0
  0
LINE
  5
52FF
330
17
100
AcDbEntity
  8
L1
 62
     7
100
AcDbLine
 10
4.556414737681006
 20
6.681734384436367
 30
0.0
 11
4.556414737681006
 21
6.571734384436368
 31
0.0
  0
LINE
  5
5300
330
17
100
AcDbEntity
  8
L1
 62
     7
100
AcDbLine
 10
4.572414737681006
 20
6.681734384436367
 30
0.0
 11
4.572414737681006
 21
6.571734384436368
 31
0.0
  0
LINE
  5
5301
330
17
100
AcDbEntity
  8
L1
 62
     7
100
AcDbLine
 10
4.588414737681006
 20
6.681734384436367
 30
0.0
 11
4.588414737681006
 21
6.571734384436368
 31
0.0
  0
LINE
  5
5302
330
17
100
AcDbEntity
  8
L1
 62
     7
100
AcDbLine
 10
4.604414737681006
 20
6.681734384436367
 30
0.0
 11
4.604414737681006
 21
6.571734384436368
 31
0.0
  0
LINE
  5
5303
330
17
100
AcDbEntity
  8
L1
 62
     7
100
AcDbLine
 10
4.620414737681006
 20
6.681734384436367
 30
0.0
 11
4.620414737681006
 21
6.571734384436368
 31
0.0
  0
LINE
  5
5304
330
17
100
AcDbEntity
  8
L1
 62
     7
100
AcDbLine
 10
4.636414737681006
 20
6.681734384436367
 30
0.0
 11
4.636414737681006
 21
6.571734384436368
 31
0.0
  0
LINE
  5
5305
330
17
100
AcDbEntity
  8
L1
 62
     7
100
AcDbLine
 10
4.652414737681006
 20
6.681734384436367
 30
0.0
 11
4.652414737681006
 21
6.571734384436368
 31
0.0
  0
LINE
  5
5306
330
17
100
AcDbEntity
  8
L1
 62
     7
100
AcDbLine
 10
4.668414737681006
 20
6.681734384436367
 30
0.0
 11
4.668414737681006
 21
6.571734384436368
 31
0.0
  0
LINE
  5
5307
330
17
100
AcDbEntity
  8
L1
 62
     7
100
AcDbLine
 10
4.684414737681006
 20
6.681734384436367
 30
0.0
 11
4.684414737681006
 21
6.571734384436368
 31
0.0
  0
LINE
  5
5308
330
17
100
AcDbEntity
  8
L1
 62
     7
100
AcDbLine
 10
4.700414737681006
 20
6.681734384436367
 30
0.0
 11
4.700414737681006
 21
6.571734384436368
 31
0.0
  0
LINE
  5
5309
330
17
100
AcDbEntity
  8
L1
 62
     7
100
AcDbLine
 10
4.716414737681006
 20
6.681734384436367
 30
0.0
 11
4.716414737681006
 21
6.571734384436368
 31
0.0
  0
LINE
  5
530A
330
17
100
AcDbEntity
  8
L1
 62
     7
100
AcDbLine
 10
4.732414737681006
 20
6.681734384436367
 30
0.0
 11
4.732414737681006
 21
6.571734384436368
 31
0.0
  0
LINE
  5
530B
330
17
100
AcDbEntity
  8
L1
 62
     7
100
AcDbLine
 10
4.748414737681006
 20
6.681734384436367
 30
0.0
 11
4.748414737681006
 21
6.571734384436368
 31
0.0
  0
LINE
  5
530C
330
17
100
AcDbEntity
  8
L1
 62
     7
100
AcDbLine
 10
4.764414737681006
 20
6.681734384436367
 30
0.0
 11
4.764414737681006
 21
6.571734384436368
 31
0.0
  0
LINE
  5
530D
330
17
100
AcDbEntity
  8
L1
 62
     7
100
AcDbLine
 10
4.780414737681006
 20
6.681734384436367
 30
0.0
 11
4.780414737681006
 21
6.571734384436368
 31
0.0
  0
LINE
  5
530E
330
17
100
AcDbEntity
  8
L1
 62
     7
100
AcDbLine
 10
4.796414737681006
 20
6.681734384436367
 30
0.0
 11
4.796414737681006
 21
6.571734384436368
 31
0.0
  0
LINE
  5
530F
330
17
100
AcDbEntity
  8
L1
 62
     7
100
AcDbLine
 10
4.812414737681006
 20
6.681734384436367
 30
0.0
 11
4.812414737681006
 21
6.571734384436368
 31
0.0
  0
LINE
  5
5310
330
17
100
AcDbEntity
  8
L1
 62
     7
100
AcDbLine
 10
4.828414737681004
 20
6.681734384436367
 30
0.0
 11
4.828414737681004
 21
6.571734384436368
 31
0.0
  0
LINE
  5
5311
330
17
100
AcDbEntity
  8
L1
 62
     7
100
AcDbLine
 10
4.844414737681006
 20
6.681734384436367
 30
0.0
 11
4.844414737681006
 21
6.571734384436368
 31
0.0
  0
LINE
  5
5312
330
17
100
AcDbEntity
  8
L1
 62
     7
100
AcDbLine
 10
4.860414737681004
 20
6.681734384436367
 30
0.0
 11
4.860414737681004
 21
6.571734384436368
 31
0.0
  0
LINE
  5
5313
330
17
100
AcDbEntity
  8
L1
 62
     7
100
AcDbLine
 10
4.876414737681006
 20
6.681734384436367
 30
0.0
 11
4.876414737681006
 21
6.571734384436368
 31
0.0
  0
LINE
  5
5314
330
17
100
AcDbEntity
  8
L1
 62
     7
100
AcDbLine
 10
4.892414737681004
 20
6.681734384436367
 30
0.0
 11
4.892414737681004
 21
6.571734384436368
 31
0.0
  0
LINE
  5
5315
330
17
100
AcDbEntity
  8
L1
 62
     7
100
AcDbLine
 10
4.908414737681006
 20
6.681734384436367
 30
0.0
 11
4.908414737681006
 21
6.571734384436368
 31
0.0
  0
LINE
  5
5316
330
17
100
AcDbEntity
  8
L1
 62
     7
100
AcDbLine
 10
4.924414737681004
 20
6.681734384436367
 30
0.0
 11
4.924414737681004
 21
6.571734384436368
 31
0.0
  0
LINE
  5
5317
330
17
100
AcDbEntity
  8
L1
 62
     7
100
AcDbLine
 10
4.940414737681006
 20
6.681734384436367
 30
0.0
 11
4.940414737681006
 21
6.571734384436368
 31
0.0
  0
LINE
  5
5318
330
17
100
AcDbEntity
  8
L1
 62
     7
100
AcDbLine
 10
4.956414737681004
 20
6.681734384436367
 30
0.0
 11
4.956414737681004
 21
6.571734384436368
 31
0.0
  0
LINE
  5
5319
330
17
100
AcDbEntity
  8
L1
 62
     7
100
AcDbLine
 10
4.972414737681006
 20
6.681734384436367
 30
0.0
 11
4.972414737681006
 21
6.571734384436368
 31
0.0
  0
LINE
  5
531A
330
17
100
AcDbEntity
  8
L1
 62
     7
100
AcDbLine
 10
4.988414737681004
 20
6.681734384436367
 30
0.0
 11
4.988414737681004
 21
6.571734384436368
 31
0.0
  0
LINE
  5
531B
330
17
100
AcDbEntity
  8
L1
 62
     7
100
AcDbLine
 10
5.004414737681006
 20
6.681734384436367
 30
0.0
 11
5.004414737681006
 21
6.571734384436368
 31
0.0
  0
LINE
  5
531C
330
17
100
AcDbEntity
  8
L1
 62
     7
100
AcDbLine
 10
5.020414737681004
 20
6.681734384436367
 30
0.0
 11
5.020414737681004
 21
6.571734384436368
 31
0.0
  0
LINE
  5
531D
330
17
100
AcDbEntity
  8
L1
 62
     7
100
AcDbLine
 10
5.036414737681006
 20
6.681734384436367
 30
0.0
 11
5.036414737681006
 21
6.571734384436368
 31
0.0
  0
LINE
  5
531E
330
17
100
AcDbEntity
  8
L1
 62
     7
100
AcDbLine
 10
5.052414737681004
 20
6.681734384436367
 30
0.0
 11
5.052414737681004
 21
6.571734384436368
 31
0.0
  0
LINE
  5
531F
330
17
100
AcDbEntity
  8
L1
 62
     7
100
AcDbLine
 10
5.068414737681006
 20
6.681734384436367
 30
0.0
 11
5.068414737681006
 21
6.571734384436368
 31
0.0
  0
LINE
  5
5320
330
17
100
AcDbEntity
  8
L1
 62
     7
100
AcDbLine
 10
5.084414737681004
 20
6.681734384436367
 30
0.0
 11
5.084414737681004
 21
6.571734384436368
 31
0.0
  0
LINE
  5
5321
330
17
100
AcDbEntity
  8
L1
 62
     7
100
AcDbLine
 10
5.100414737681006
 20
6.681734384436367
 30
0.0
 11
5.100414737681006
 21
6.571734384436368
 31
0.0
  0
LINE
  5
5322
330
17
100
AcDbEntity
  8
L1
 62
     7
100
AcDbLine
 10
5.116414737681004
 20
6.681734384436367
 30
0.0
 11
5.116414737681004
 21
6.571734384436368
 31
0.0
  0
LINE
  5
5323
330
17
100
AcDbEntity
  8
L1
 62
     7
100
AcDbLine
 10
5.132414737681006
 20
6.681734384436367
 30
0.0
 11
5.132414737681006
 21
6.571734384436368
 31
0.0
  0
LINE
  5
5324
330
17
100
AcDbEntity
  8
L1
 62
     7
100
AcDbLine
 10
5.148414737681004
 20
6.681734384436367
 30
0.0
 11
5.148414737681004
 21
6.571734384436368
 31
0.0
  0
LINE
  5
5325
330
17
100
AcDbEntity
  8
L1
 62
     7
100
AcDbLine
 10
5.164414737681006
 20
6.681734384436367
 30
0.0
 11
5.164414737681006
 21
6.571734384436368
 31
0.0
  0
LINE
  5
5326
330
17
100
AcDbEntity
  8
L1
 62
     7
100
AcDbLine
 10
5.180414737681005
 20
6.681734384436367
 30
0.0
 11
5.180414737681005
 21
6.571734384436368
 31
0.0
  0
LINE
  5
5327
330
17
100
AcDbEntity
  8
L1
 62
     7
100
AcDbLine
 10
5.196414737681006
 20
6.681734384436367
 30
0.0
 11
5.196414737681006
 21
6.571734384436368
 31
0.0
  0
LINE
  5
5328
330
17
100
AcDbEntity
  8
L1
 62
     7
100
AcDbLine
 10
5.212414737681005
 20
6.681734384436367
 30
0.0
 11
5.212414737681005
 21
6.571734384436368
 31
0.0
  0
LINE
  5
5329
330
17
100
AcDbEntity
  8
L1
 62
     7
100
AcDbLine
 10
5.228414737681006
 20
6.681734384436367
 30
0.0
 11
5.228414737681006
 21
6.571734384436368
 31
0.0
  0
LINE
  5
532A
330
17
100
AcDbEntity
  8
L1
 62
     7
100
AcDbLine
 10
5.244414737681005
 20
6.681734384436367
 30
0.0
 11
5.244414737681005
 21
6.571734384436368
 31
0.0
  0
LINE
  5
532B
330
17
100
AcDbEntity
  8
L1
 62
     7
100
AcDbLine
 10
5.260414737681006
 20
6.681734384436367
 30
0.0
 11
5.260414737681006
 21
6.571734384436368
 31
0.0
  0
LINE
  5
532C
330
17
100
AcDbEntity
  8
L1
 62
     7
100
AcDbLine
 10
5.276414737681005
 20
6.681734384436367
 30
0.0
 11
5.276414737681005
 21
6.571734384436368
 31
0.0
  0
LINE
  5
532D
330
17
100
AcDbEntity
  8
L1
 62
     7
100
AcDbLine
 10
5.292414737681006
 20
6.681734384436367
 30
0.0
 11
5.292414737681006
 21
6.571734384436368
 31
0.0
  0
LINE
  5
532E
330
17
100
AcDbEntity
  8
L1
 62
     7
100
AcDbLine
 10
5.308414737681005
 20
6.681734384436367
 30
0.0
 11
5.308414737681005
 21
6.571734384436368
 31
0.0
  0
LINE
  5
532F
330
17
100
AcDbEntity
  8
L1
 62
     7
100
AcDbLine
 10
5.324414737681006
 20
6.681734384436367
 30
0.0
 11
5.324414737681006
 21
6.571734384436368
 31
0.0
  0
LINE
  5
5330
330
17
100
AcDbEntity
  8
L1
 62
     7
100
AcDbLine
 10
5.340414737681005
 20
6.681734384436367
 30
0.0
 11
5.340414737681005
 21
6.571734384436368
 31
0.0
  0
LINE
  5
5331
330
17
100
AcDbEntity
  8
L1
 62
     7
100
AcDbLine
 10
5.356414737681006
 20
6.681734384436367
 30
0.0
 11
5.356414737681006
 21
6.571734384436368
 31
0.0
  0
LINE
  5
5332
330
17
100
AcDbEntity
  8
L1
 62
     7
100
AcDbLine
 10
5.372414737681005
 20
6.681734384436367
 30
0.0
 11
5.372414737681005
 21
6.571734384436368
 31
0.0
  0
LINE
  5
5333
330
17
100
AcDbEntity
  8
L1
 62
     7
100
AcDbLine
 10
5.388414737681006
 20
6.681734384436367
 30
0.0
 11
5.388414737681006
 21
6.571734384436368
 31
0.0
  0
LINE
  5
5334
330
17
100
AcDbEntity
  8
L1
 62
     7
100
AcDbLine
 10
5.404414737681005
 20
6.681734384436367
 30
0.0
 11
5.404414737681005
 21
6.571734384436368
 31
0.0
  0
LINE
  5
5335
330
17
100
AcDbEntity
  8
L1
 62
     7
100
AcDbLine
 10
5.420414737681007
 20
6.681734384436367
 30
0.0
 11
5.420414737681007
 21
6.571734384436368
 31
0.0
  0
LINE
  5
5336
330
17
100
AcDbEntity
  8
L1
 62
     7
100
AcDbLine
 10
5.436414737681005
 20
6.681734384436367
 30
0.0
 11
5.436414737681005
 21
6.571734384436368
 31
0.0
  0
LINE
  5
5337
330
17
100
AcDbEntity
  8
L1
 62
     7
100
AcDbLine
 10
5.452414737681007
 20
6.681734384436367
 30
0.0
 11
5.452414737681007
 21
6.571734384436368
 31
0.0
  0
LINE
  5
5338
330
17
100
AcDbEntity
  8
L1
 62
     7
100
AcDbLine
 10
5.468414737681005
 20
6.681734384436367
 30
0.0
 11
5.468414737681005
 21
6.571734384436368
 31
0.0
  0
LINE
  5
5339
330
17
100
AcDbEntity
  8
L1
 62
     7
100
AcDbLine
 10
5.484414737681007
 20
6.681734384436367
 30
0.0
 11
5.484414737681007
 21
6.571734384436368
 31
0.0
  0
LINE
  5
533A
330
17
100
AcDbEntity
  8
L1
 62
     7
100
AcDbLine
 10
5.500414737681005
 20
6.681734384436367
 30
0.0
 11
5.500414737681005
 21
6.571734384436368
 31
0.0
  0
LINE
  5
533B
330
17
100
AcDbEntity
  8
L1
 62
     7
100
AcDbLine
 10
5.516414737681007
 20
6.681734384436367
 30
0.0
 11
5.516414737681007
 21
6.571734384436368
 31
0.0
  0
LINE
  5
533C
330
17
100
AcDbEntity
  8
L1
 62
     7
100
AcDbLine
 10
5.532414737681005
 20
6.681734384436367
 30
0.0
 11
5.532414737681005
 21
6.571734384436368
 31
0.0
  0
LINE
  5
533D
330
17
100
AcDbEntity
  8
L1
 62
     7
100
AcDbLine
 10
5.548414737681007
 20
6.681734384436367
 30
0.0
 11
5.548414737681007
 21
6.571734384436368
 31
0.0
  0
LINE
  5
533E
330
17
100
AcDbEntity
  8
L1
 62
     7
100
AcDbLine
 10
5.564414737681005
 20
6.681734384436367
 30
0.0
 11
5.564414737681005
 21
6.571734384436368
 31
0.0
  0
LINE
  5
533F
330
17
100
AcDbEntity
  8
L1
 62
     7
100
AcDbLine
 10
5.580414737681007
 20
6.681734384436367
 30
0.0
 11
5.580414737681007
 21
6.571734384436368
 31
0.0
  0
LINE
  5
5340
330
17
100
AcDbEntity
  8
L1
 62
     7
100
AcDbLine
 10
5.596414737681005
 20
6.681734384436367
 30
0.0
 11
5.596414737681005
 21
6.571734384436368
 31
0.0
  0
LINE
  5
5341
330
17
100
AcDbEntity
  8
L1
 62
     7
100
AcDbLine
 10
5.612414737681007
 20
6.681734384436367
 30
0.0
 11
5.612414737681007
 21
6.571734384436368
 31
0.0
  0
LINE
  5
5342
330
17
100
AcDbEntity
  8
L1
 62
     7
100
AcDbLine
 10
5.628414737681005
 20
6.681734384436367
 30
0.0
 11
5.628414737681005
 21
6.571734384436368
 31
0.0
  0
LINE
  5
5343
330
17
100
AcDbEntity
  8
L1
 62
     7
100
AcDbLine
 10
5.644414737681005
 20
6.681734384436367
 30
0.0
 11
5.644414737681005
 21
6.571734384436368
 31
0.0
  0
LINE
  5
5344
330
17
100
AcDbEntity
  8
L1
 62
     7
100
AcDbLine
 10
5.660414737681005
 20
6.681734384436367
 30
0.0
 11
5.660414737681005
 21
6.571734384436368
 31
0.0
  0
LINE
  5
5345
330
17
100
AcDbEntity
  8
L1
 62
     7
100
AcDbLine
 10
5.676414737681005
 20
6.681734384436367
 30
0.0
 11
5.676414737681005
 21
6.571734384436368
 31
0.0
  0
LINE
  5
5346
330
17
100
AcDbEntity
  8
L1
 62
     7
100
AcDbLine
 10
5.692414737681005
 20
6.681734384436367
 30
0.0
 11
5.692414737681005
 21
6.571734384436368
 31
0.0
  0
LINE
  5
5347
330
17
100
AcDbEntity
  8
L1
 62
     7
100
AcDbLine
 10
5.708414737681005
 20
6.681734384436367
 30
0.0
 11
5.708414737681005
 21
6.571734384436368
 31
0.0
  0
LINE
  5
5348
330
17
100
AcDbEntity
  8
L1
 62
     7
100
AcDbLine
 10
5.724414737681005
 20
6.681734384436367
 30
0.0
 11
5.724414737681005
 21
6.571734384436368
 31
0.0
  0
LINE
  5
5349
330
17
100
AcDbEntity
  8
L1
 62
     7
100
AcDbLine
 10
5.740414737681005
 20
6.681734384436367
 30
0.0
 11
5.740414737681005
 21
6.571734384436368
 31
0.0
  0
LINE
  5
534A
330
17
100
AcDbEntity
  8
L1
 62
     7
100
AcDbLine
 10
5.756414737681005
 20
6.681734384436367
 30
0.0
 11
5.756414737681005
 21
6.571734384436368
 31
0.0
  0
LINE
  5
534B
330
17
100
AcDbEntity
  8
L1
 62
     7
100
AcDbLine
 10
5.772414737681003
 20
6.681734384436367
 30
0.0
 11
5.772414737681003
 21
6.571734384436368
 31
0.0
  0
LINE
  5
535C
330
17
100
AcDbEntity
  8
L1
 62
     7
100
AcDbLine
 10
5.703414737681026
 20
5.384734384436333
 30
0.0
 11
4.32741473768102
 21
5.38473438443635
 31
0.0
  0
LINE
  5
535D
330
17
100
AcDbEntity
  8
L1
  6
Continuous
 62
     1
100
AcDbLine
 10
5.01541473768102
 20
7.518280368104882
 30
0.0
 11
5.01541473768102
 21
8.657889095474857
 31
0.0
  0
LINE
  5
5382
330
17
100
AcDbEntity
  8
L1
  6
Continuous
 62
     7
100
AcDbLine
 10
4.32741473768102
 20
5.38473438443635
 30
0.0
 11
4.32741473768102
 21
5.674734384436356
 31
0.0
  0
LINE
  5
5383
330
17
100
AcDbEntity
  8
L1
 62
     7
100
AcDbLine
 10
5.703414737681026
 20
5.384734384436333
 30
0.0
 11
5.703414737681026
 21
5.674734384436346
 31
0.0
  0
LINE
  5
5384
330
17
100
AcDbEntity
  8
L1
 62
     7
100
AcDbLine
 10
5.70341473768103
 20
5.674734384436333
 30
0.0
 11
4.327414737681023
 21
5.67473438443635
 31
0.0
  0
LINE
  5
5385
330
17
100
AcDbEntity
  8
L1
  6
Continuous
 62
     7
100
AcDbLine
 10
4.671414737681019
 20
5.384734384436345
 30
0.0
 11
4.671414737681019
 21
5.634734384436345
 31
0.0
  0
LINE
  5
5386
330
17
100
AcDbEntity
  8
L1
  6
Continuous
 62
     7
100
AcDbLine
 10
5.35941473768102
 20
5.384734384436336
 30
0.0
 11
5.35941473768102
 21
5.634734384436337
 31
0.0
  0
ARC
  5
5388
330
17
100
AcDbEntity
  8
L1
 62
     7
100
AcDbCircle
 10
5.015414737681003
 20
4.175534384436352
 30
0.0
 40
1.499199999999989
100
AcDbArc
 50
76.73497076972231
 51
103.2650292302761
  0
ARC
  5
5389
330
17
100
AcDbEntity
  8
L1
 62
     7
100
AcDbCircle
 10
4.327414737680984
 20
4.175534384436367
 30
0.0
 40
1.499199999999989
100
AcDbArc
 50
76.7349707697214
 51
89.99999999999861
  0
ARC
  5
538A
330
17
100
AcDbEntity
  8
L1
 62
     7
100
AcDbCircle
 10
5.703414737681054
 20
4.175534384436358
 30
0.0
 40
1.499199999999989
100
AcDbArc
 50
90.00000000000104
 51
103.2650292302785
  0
LINE
  5
538B
330
17
100
AcDbEntity
  8
L1
 62
     7
100
AcDbLine
 10
4.401414737681015
 20
6.174734384436334
 30
0.0
 11
5.629414737681017
 21
6.174734384436334
 31
0.0
  0
LINE
  5
538F
330
17
100
AcDbEntity
  8
L1
 62
     7
100
AcDbLine
 10
5.771962086737367
 20
5.057234384436334
 30
0.0
 11
4.258867388624673
 21
5.057234384436334
 31
0.0
  0
LINE
  5
5390
330
17
100
AcDbEntity
  8
L1
 62
     7
100
AcDbLine
 10
5.771962086737367
 20
5.119734384436334
 30
0.0
 11
4.258867388624673
 21
5.119734384436334
 31
0.0
  0
LINE
  5
5391
330
17
100
AcDbEntity
  8
L1
 62
     7
100
AcDbLine
 10
5.771962086737367
 20
5.182234384436334
 30
0.0
 11
4.258867388624673
 21
5.182234384436334
 31
0.0
  0
LINE
  5
5392
330
17
100
AcDbEntity
  8
L1
 62
     7
100
AcDbLine
 10
5.771962086737367
 20
5.244734384436334
 30
0.0
 11
4.258867388624673
 21
5.244734384436334
 31
0.0
  0
LINE
  5
5393
330
17
100
AcDbEntity
  8
L1
 62
     7
100
AcDbLine
 10
5.771962086737367
 20
5.307234384436334
 30
0.0
 11
4.258867388624673
 21
5.307234384436334
 31
0.0
  0
LINE
  5
5394
330
17
100
AcDbEntity
  8
L1
 62
     7
100
AcDbLine
 10
5.771962086737367
 20
5.369734384436334
 30
0.0
 11
5.771962086737367
 21
4.994734384436334
 31
0.0
  0
LINE
  5
5395
330
17
100
AcDbEntity
  8
L1
 62
     7
100
AcDbLine
 10
4.258867388624673
 20
5.369734384436334
 30
0.0
 11
4.258867388624673
 21
4.994734384436334
 31
0.0
  0
ARC
  5
5397
330
17
100
AcDbEntity
  8
L1
100
AcDbCircle
 10
5.162639056324375
 20
2.729881426902819
 30
0.0
 40
0.12
100
AcDbArc
 50
30.00000000000035
 51
90.00000000000019
  0
ARC
  5
5398
330
17
100
AcDbEntity
  8
L1
100
AcDbCircle
 10
5.30986337496773
 20
2.474881426902819
 30
0.0
 40
0.12
100
AcDbArc
 50
329.9999999999998
 51
30.00000000000037
  0
ARC
  5
5399
330
17
100
AcDbEntity
  8
L1
100
AcDbCircle
 10
5.162639056324376
 20
2.21988142690282
 30
0.0
 40
0.12
100
AcDbArc
 50
269.9999999999999
 51
329.9999999999999
  0
ARC
  5
539A
330
17
100
AcDbEntity
  8
L1
100
AcDbCircle
 10
4.868190419037666
 20
2.219881426902821
 30
0.0
 40
0.12
100
AcDbArc
 50
210.0
 51
269.9999999999999
  0
ARC
  5
539B
330
17
100
AcDbEntity
  8
L1
100
AcDbCircle
 10
4.720966100394312
 20
2.47488142690282
 30
0.0
 40
0.12
100
AcDbArc
 50
149.9999999999996
 51
209.9999999999999
  0
ARC
  5
539C
330
17
100
AcDbEntity
  8
L1
100
AcDbCircle
 10
4.868190419037669
 20
2.729881426902819
 30
0.0
 40
0.12
100
AcDbArc
 50
90.00000000000005
 51
149.9999999999995
  0
CIRCLE
  5
539E
330
17
100
AcDbEntity
  8
L1
 62
     7
100
AcDbCircle
 10
5.009430129433432
 20
2.47488142690282
 30
0.0
 40
0.4265
  0
LINE
  5
539F
330
17
100
AcDbEntity
  8
L1
 62
     7
100
AcDbLine
 10
5.695850737681009
 20
2.049881426902819
 30
0.0
 11
5.69585073768101
 21
2.389881426902819
 31
0.0
  0
LINE
  5
53A1
330
17
100
AcDbEntity
  8
L1
 62
     7
100
AcDbLine
 10
5.541559537681003
 20
1.959881426902819
 30
0.0
 11
5.541559537681002
 21
2.42988142690282
 31
0.0
  0
LINE
  5
53A3
330
17
100
AcDbEntity
  8
L1
 62
     7
100
AcDbLine
 10
5.81491473768101
 20
1.82988142690282
 30
0.0
 11
5.814914737681009
 21
2.01488142690282
 31
0.0
  0
LINE
  5
53A9
330
17
100
AcDbEntity
  8
L1
 62
     7
100
AcDbLine
 10
5.814914737681015
 20
2.42488142690282
 30
0.0
 11
5.814914737681014
 21
2.52488142690282
 31
0.0
  0
LINE
  5
53AB
330
17
100
AcDbEntity
  8
L1
  6
Continuous
 62
     1
100
AcDbLine
 10
6.078358178696355
 20
2.47488142690282
 30
0.0
 11
3.961804814980727
 21
2.47488142690282
 31
0.0
  0
LINE
  5
53AC
330
17
100
AcDbEntity
  8
L1
  6
Continuous
 62
     7
100
AcDbLine
 10
5.69491473768101
 20
1.709881426902819
 30
0.0
 11
4.33591473768103
 21
1.709881426902819
 31
0.0
  0
LINE
  5
53AD
330
17
100
AcDbEntity
  8
L1
  6
Continuous
 62
     7
100
AcDbLine
 10
5.779914737681009
 20
2.049881426902819
 30
0.0
 11
5.631559537681003
 21
2.049881426902819
 31
0.0
  0
LINE
  5
53AF
330
17
100
AcDbEntity
  8
L1
  6
Continuous
 62
     7
100
AcDbLine
 10
5.779914737681015
 20
2.38988142690282
 30
0.0
 11
5.631559537681001
 21
2.38988142690282
 31
0.0
  0
ARC
  5
53CC
330
17
100
AcDbEntity
  8
L1
 62
     7
100
AcDbCircle
 10
5.69491473768101
 20
1.82988142690282
 30
0.0
 40
0.12
100
AcDbArc
 50
270.0
 51
0.0000000000005725
  0
ARC
  5
53CD
330
17
100
AcDbEntity
  8
L1
 62
     7
100
AcDbCircle
 10
5.779914737681009
 20
2.01488142690282
 30
0.0
 40
0.035
100
AcDbArc
 50
0.0000000000004071
 51
90.0
  0
ARC
  5
53CE
330
17
100
AcDbEntity
  8
L1
 62
     7
100
AcDbCircle
 10
5.779914737681015
 20
2.42488142690282
 30
0.0
 40
0.035
100
AcDbArc
 50
270.0
 51
0.0000000000004707
  0
ARC
  5
53CF
330
17
100
AcDbEntity
  8
L1
 62
     7
100
AcDbCircle
 10
5.69491473768101
 20
3.11988142690282
 30
0.0
 40
0.12
100
AcDbArc
 50
359.9999999999994
 51
90.00000000000003
  0
LINE
  5
53D0
330
17
100
AcDbEntity
  8
L1
  6
Continuous
 62
     7
100
AcDbLine
 10
5.779914737681009
 20
2.89988142690282
 30
0.0
 11
5.631559537681001
 21
2.89988142690282
 31
0.0
  0
ARC
  5
53D1
330
17
100
AcDbEntity
  8
L1
 62
     7
100
AcDbCircle
 10
5.779914737681009
 20
2.934881426902819
 30
0.0
 40
0.035
100
AcDbArc
 50
270.0
 51
359.9999999999996
  0
LINE
  5
53D2
330
17
100
AcDbEntity
  8
L1
  6
Continuous
 62
     7
100
AcDbLine
 10
5.779914737681015
 20
2.559881426902819
 30
0.0
 11
5.631559537681003
 21
2.559881426902819
 31
0.0
  0
LINE
  5
53D3
330
17
100
AcDbEntity
  8
L1
 62
     7
100
AcDbLine
 10
5.695850737681009
 20
2.89988142690282
 30
0.0
 11
5.69585073768101
 21
2.55988142690282
 31
0.0
  0
LINE
  5
53D4
330
17
100
AcDbEntity
  8
L1
 62
     7
100
AcDbLine
 10
5.541559537681002
 20
2.98988142690282
 30
0.0
 11
5.541559537681001
 21
2.51988142690282
 31
0.0
  0
LINE
  5
53D5
330
17
100
AcDbEntity
  8
L1
 62
     7
100
AcDbLine
 10
5.81491473768101
 20
3.119881426902819
 30
0.0
 11
5.814914737681009
 21
2.934881426902819
 31
0.0
  0
ARC
  5
53D6
330
17
100
AcDbEntity
  8
L1
 62
     7
100
AcDbCircle
 10
5.779914737681015
 20
2.524881426902819
 30
0.0
 40
0.035
100
AcDbArc
 50
359.9999999999996
 51
90.00000000000003
  0
LINE
  5
53D7
330
17
100
AcDbEntity
  8
L1
  6
Continuous
 62
     7
100
AcDbLine
 10
5.69491473768101
 20
3.23988142690282
 30
0.0
 11
4.33591473768103
 21
3.239881426902819
 31
0.0
  0
ARC
  5
53D8
330
17
100
AcDbEntity
  8
L1
 62
     7
100
AcDbCircle
 10
4.33591473768103
 20
1.82988142690282
 30
0.0
 40
0.12
100
AcDbArc
 50
179.9999999999994
 51
270.0
  0
LINE
  5
53D9
330
17
100
AcDbEntity
  8
L1
  6
Continuous
 62
     7
100
AcDbLine
 10
4.250914737681031
 20
2.049881426902819
 30
0.0
 11
4.399269937681039
 21
2.049881426902819
 31
0.0
  0
ARC
  5
53DA
330
17
100
AcDbEntity
  8
L1
 62
     7
100
AcDbCircle
 10
4.250914737681031
 20
2.01488142690282
 30
0.0
 40
0.035
100
AcDbArc
 50
90.0
 51
179.9999999999996
  0
LINE
  5
53DB
330
17
100
AcDbEntity
  8
L1
  6
Continuous
 62
     7
100
AcDbLine
 10
4.250914737681025
 20
2.38988142690282
 30
0.0
 11
4.399269937681038
 21
2.38988142690282
 31
0.0
  0
LINE
  5
53DC
330
17
100
AcDbEntity
  8
L1
 62
     7
100
AcDbLine
 10
4.334978737681031
 20
2.049881426902819
 30
0.0
 11
4.33497873768103
 21
2.389881426902819
 31
0.0
  0
LINE
  5
53DD
330
17
100
AcDbEntity
  8
L1
 62
     7
100
AcDbLine
 10
4.489269937681038
 20
1.959881426902819
 30
0.0
 11
4.489269937681038
 21
2.42988142690282
 31
0.0
  0
LINE
  5
53DE
330
17
100
AcDbEntity
  8
L1
 62
     7
100
AcDbLine
 10
4.21591473768103
 20
1.82988142690282
 30
0.0
 11
4.215914737681031
 21
2.01488142690282
 31
0.0
  0
LINE
  5
53DF
330
17
100
AcDbEntity
  8
L1
 62
     7
100
AcDbLine
 10
4.215914737681025
 20
2.42488142690282
 30
0.0
 11
4.215914737681026
 21
2.52488142690282
 31
0.0
  0
ARC
  5
53E0
330
17
100
AcDbEntity
  8
L1
 62
     7
100
AcDbCircle
 10
4.250914737681025
 20
2.42488142690282
 30
0.0
 40
0.035
100
AcDbArc
 50
179.9999999999995
 51
270.0
  0
ARC
  5
53E1
330
17
100
AcDbEntity
  8
L1
 62
     7
100
AcDbCircle
 10
4.33591473768103
 20
3.11988142690282
 30
0.0
 40
0.12
100
AcDbArc
 50
89.99999999999998
 51
180.0000000000006
  0
LINE
  5
53E2
330
17
100
AcDbEntity
  8
L1
  6
Continuous
 62
     7
100
AcDbLine
 10
4.250914737681031
 20
2.89988142690282
 30
0.0
 11
4.399269937681038
 21
2.89988142690282
 31
0.0
  0
ARC
  5
53E3
330
17
100
AcDbEntity
  8
L1
 62
     7
100
AcDbCircle
 10
4.250914737681031
 20
2.934881426902819
 30
0.0
 40
0.035
100
AcDbArc
 50
180.0000000000004
 51
270.0
  0
LINE
  5
53E4
330
17
100
AcDbEntity
  8
L1
  6
Continuous
 62
     7
100
AcDbLine
 10
4.250914737681025
 20
2.559881426902819
 30
0.0
 11
4.399269937681039
 21
2.559881426902819
 31
0.0
  0
LINE
  5
53E5
330
17
100
AcDbEntity
  8
L1
 62
     7
100
AcDbLine
 10
4.334978737681031
 20
2.89988142690282
 30
0.0
 11
4.33497873768103
 21
2.55988142690282
 31
0.0
  0
LINE
  5
53E6
330
17
100
AcDbEntity
  8
L1
 62
     7
100
AcDbLine
 10
4.489269937681038
 20
2.98988142690282
 30
0.0
 11
4.489269937681038
 21
2.519881426902819
 31
0.0
  0
LINE
  5
53E7
330
17
100
AcDbEntity
  8
L1
 62
     7
100
AcDbLine
 10
4.21591473768103
 20
3.119881426902819
 30
0.0
 11
4.215914737681031
 21
2.934881426902819
 31
0.0
  0
ARC
  5
53E8
330
17
100
AcDbEntity
  8
L1
 62
     7
100
AcDbCircle
 10
4.250914737681025
 20
2.524881426902819
 30
0.0
 40
0.035
100
AcDbArc
 50
89.99999999999998
 51
180.0000000000005
  0
LINE
  5
53E9
330
17
100
AcDbEntity
  8
L1
  6
Continuous
 62
     7
100
AcDbLine
 10
5.69491473768101
 20
3.14988142690282
 30
0.0
 11
4.33591473768103
 21
3.149881426902819
 31
0.0
  0
LINE
  5
53EA
330
17
100
AcDbEntity
  8
L1
 62
     7
100
AcDbLine
 10
4.30591473768103
 20
3.119881426902819
 30
0.0
 11
4.305914737681031
 21
2.98988142690282
 31
0.0
  0
LINE
  5
53EB
330
17
100
AcDbEntity
  8
L1
  6
Continuous
 62
     7
100
AcDbLine
 10
4.305914737681031
 20
2.98988142690282
 30
0.0
 11
4.489269937681038
 21
2.98988142690282
 31
0.0
  0
LINE
  5
53ED
330
17
100
AcDbEntity
  8
L1
 62
     7
100
AcDbLine
 10
4.399269937681038
 20
2.89988142690282
 30
0.0
 11
4.399269937681039
 21
2.559881426902819
 31
0.0
  0
LINE
  5
53EE
330
17
100
AcDbEntity
  8
L1
 62
     7
100
AcDbLine
 10
4.399269937681039
 20
2.049881426902819
 30
0.0
 11
4.399269937681038
 21
2.38988142690282
 31
0.0
  0
LINE
  5
53EF
330
17
100
AcDbEntity
  8
L1
 62
     7
100
AcDbLine
 10
5.631559537681001
 20
2.89988142690282
 30
0.0
 11
5.631559537681003
 21
2.559881426902819
 31
0.0
  0
LINE
  5
53F0
330
17
100
AcDbEntity
  8
L1
 62
     7
100
AcDbLine
 10
5.631559537681003
 20
2.049881426902819
 30
0.0
 11
5.631559537681001
 21
2.38988142690282
 31
0.0
  0
LINE
  5
53F1
330
17
100
AcDbEntity
  8
L1
  6
Continuous
 62
     7
100
AcDbLine
 10
4.305914737681031
 20
1.959881426902819
 30
0.0
 11
4.489269937681038
 21
1.959881426902819
 31
0.0
  0
LINE
  5
53F2
330
17
100
AcDbEntity
  8
L1
 62
     7
100
AcDbLine
 10
4.30591473768103
 20
1.82988142690282
 30
0.0
 11
4.305914737681031
 21
1.959881426902819
 31
0.0
  0
ARC
  5
53F3
330
17
100
AcDbEntity
  8
L1
 62
     7
100
AcDbCircle
 10
4.33591473768103
 20
1.82988142690282
 30
0.0
 40
0.03
100
AcDbArc
 50
179.9999999999994
 51
270.0
  0
LINE
  5
53F4
330
17
100
AcDbEntity
  8
L1
  6
Continuous
 62
     7
100
AcDbLine
 10
5.69491473768101
 20
1.799881426902819
 30
0.0
 11
4.33591473768103
 21
1.79988142690282
 31
0.0
  0
ARC
  5
53F5
330
17
100
AcDbEntity
  8
L1
 62
     7
100
AcDbCircle
 10
5.69491473768101
 20
1.82988142690282
 30
0.0
 40
0.03
100
AcDbArc
 50
270.0
 51
0.0000000000005725
  0
LINE
  5
53F6
330
17
100
AcDbEntity
  8
L1
 62
     7
100
AcDbLine
 10
5.72491473768101
 20
1.82988142690282
 30
0.0
 11
5.724914737681009
 21
1.959881426902819
 31
0.0
  0
LINE
  5
53F7
330
17
100
AcDbEntity
  8
L1
  6
Continuous
 62
     7
100
AcDbLine
 10
5.724914737681009
 20
1.959881426902819
 30
0.0
 11
5.541559537681003
 21
1.959881426902819
 31
0.0
  0
ARC
  5
53F8
330
17
100
AcDbEntity
  8
L1
 62
     7
100
AcDbCircle
 10
5.69491473768101
 20
3.11988142690282
 30
0.0
 40
0.03
100
AcDbArc
 50
359.9999999999994
 51
90.00000000000003
  0
LINE
  5
53F9
330
17
100
AcDbEntity
  8
L1
 62
     7
100
AcDbLine
 10
5.72491473768101
 20
3.119881426902819
 30
0.0
 11
5.72491473768101
 21
2.98988142690282
 31
0.0
  0
LINE
  5
53FA
330
17
100
AcDbEntity
  8
L1
  6
Continuous
 62
     7
100
AcDbLine
 10
5.72491473768101
 20
2.98988142690282
 30
0.0
 11
5.541559537681002
 21
2.98988142690282
 31
0.0
  0
ARC
  5
53FB
330
17
100
AcDbEntity
  8
L1
 62
     7
100
AcDbCircle
 10
4.33591473768103
 20
3.11988142690282
 30
0.0
 40
0.03
100
AcDbArc
 50
89.99999999999998
 51
180.0000000000006
  0
LINE
  5
53FC
330
17
100
AcDbEntity
  8
L1
  6
Continuous
 62
     7
100
AcDbLine
 10
5.724914737681014
 20
2.519881426902819
 30
0.0
 11
5.541559537681001
 21
2.51988142690282
 31
0.0
  0
LINE
  5
53FD
330
17
100
AcDbEntity
  8
L1
  6
Continuous
 62
     7
100
AcDbLine
 10
5.724914737681016
 20
2.42988142690282
 30
0.0
 11
5.541559537681002
 21
2.42988142690282
 31
0.0
  0
LINE
  5
53FE
330
17
100
AcDbEntity
  8
L1
  6
Continuous
 62
     7
100
AcDbLine
 10
4.305914737681025
 20
2.519881426902819
 30
0.0
 11
4.489269937681038
 21
2.519881426902819
 31
0.0
  0
LINE
  5
53FF
330
17
100
AcDbEntity
  8
L1
  6
Continuous
 62
     7
100
AcDbLine
 10
4.305914737681025
 20
2.42988142690282
 30
0.0
 11
4.489269937681038
 21
2.42988142690282
 31
0.0
  0
LINE
  5
5400
330
17
100
AcDbEntity
  8
L1
 62
     7
100
AcDbLine
 10
4.305914737681025
 20
2.42988142690282
 30
0.0
 11
4.305914737681025
 21
2.519881426902819
 31
0.0
  0
LINE
  5
5401
330
17
100
AcDbEntity
  8
L1
 62
     7
100
AcDbLine
 10
5.724914737681016
 20
2.42988142690282
 30
0.0
 11
5.724914737681014
 21
2.519881426902819
 31
0.0
  0
LINE
  5
55CE
330
17
100
AcDbEntity
  8
L1
 62
     7
100
AcDbLine
 10
5.771962086737367
 20
5.369734384436334
 30
0.0
 11
4.258867388624673
 21
5.369734384436334
 31
0.0
  0
LINE
  5
55D0
330
17
100
AcDbEntity
  8
L1
 62
   253
100
AcDbLine
 10
4.236232862663733
 20
5.38473438443635
 30
0.0
 11
3.466118919864946
 21
5.38473438443635
 31
0.0
  0
LINE
  5
55D1
330
17
100
AcDbEntity
  8
L1
 62
   253
100
AcDbLine
 10
5.794596612698318
 20
5.384734384436351
 30
0.0
 11
6.564710555497104
 21
5.384734384436353
 31
0.0
  0
LINE
  5
55D2
330
17
100
AcDbEntity
  8
L1
  6
Continuous
 62
     7
100
AcDbLine
 10
12.80622936663666
 20
5.384734384436336
 30
0.0
 11
12.80622936663666
 21
5.634734384436337
 31
0.0
  0
LINE
  5
55D3
330
17
100
AcDbEntity
  8
L1
  6
Continuous
 62
     7
100
AcDbLine
 10
12.11822936663665
 20
5.384734384436345
 30
0.0
 11
12.11822936663665
 21
5.634734384436345
 31
0.0
  0
LINE
  5
55D4
330
17
100
AcDbEntity
  8
L1
  6
Continuous
 62
     7
100
AcDbLine
 10
11.77422936663665
 20
5.38473438443635
 30
0.0
 11
11.77422936663665
 21
5.674734384436356
 31
0.0
  0
LINE
  5
55D5
330
17
100
AcDbEntity
  8
L1
 62
     1
100
AcDbLine
 10
12.46222936663666
 20
4.181301107672865
 30
0.0
 11
12.46222936663666
 21
7.179900667716196
 31
0.0
  0
LINE
  5
55D6
330
17
100
AcDbEntity
  8
L1
 62
     7
100
AcDbLine
 10
13.15022936663666
 20
5.384734384436333
 30
0.0
 11
13.15022936663666
 21
5.674734384436346
 31
0.0
  0
LINE
  5
55D7
330
17
100
AcDbEntity
  8
L1
 62
     7
100
AcDbLine
 10
13.12722936663665
 20
5.67455794662608
 30
0.0
 11
13.12722936663665
 21
6.154734384436331
 31
0.0
  0
LINE
  5
55D8
330
17
100
AcDbEntity
  8
L1
 62
     7
100
AcDbLine
 10
11.79722936663665
 20
5.674557946626091
 30
0.0
 11
11.79722936663665
 21
6.154734384436331
 31
0.0
  0
ARC
  5
55D9
330
17
100
AcDbEntity
  8
L1
 62
     7
100
AcDbCircle
 10
13.10722936663665
 20
6.154734384436331
 30
0.0
 40
0.02
100
AcDbArc
 50
0.0
 51
89.99999999999799
  0
ARC
  5
55DA
330
17
100
AcDbEntity
  8
L1
 62
     7
100
AcDbCircle
 10
11.81722936663665
 20
6.154734384436331
 30
0.0
 40
0.02
100
AcDbArc
 50
90.0
 51
180.0
  0
LINE
  5
55DB
330
17
100
AcDbEntity
  8
L1
 62
     7
100
AcDbLine
 10
11.84822936663665
 20
6.174734384436334
 30
0.0
 11
11.81722936663665
 21
6.174734384436334
 31
0.0
  0
LINE
  5
55DC
330
17
100
AcDbEntity
  8
L1
 62
     7
100
AcDbLine
 10
13.10722936663665
 20
6.174734384436334
 30
0.0
 11
13.07622936663665
 21
6.174734384436334
 31
0.0
  0
LINE
  5
55DD
330
17
100
AcDbEntity
  8
L1
 62
     7
100
AcDbLine
 10
13.15022936663666
 20
5.384734384436333
 30
0.0
 11
11.77422936663665
 21
5.38473438443635
 31
0.0
  0
LINE
  5
55DE
330
17
100
AcDbEntity
  8
L1
 62
     7
100
AcDbLine
 10
13.15022936663666
 20
5.674734384436333
 30
0.0
 11
11.77422936663666
 21
5.67473438443635
 31
0.0
  0
LINE
  5
55E1
330
17
100
AcDbEntity
  8
L1
 62
     7
100
AcDbLine
 10
13.00722936663664
 20
6.174734384436335
 30
0.0
 11
13.00722936663664
 21
6.571734384436366
 31
0.0
  0
LINE
  5
55E2
330
17
100
AcDbEntity
  8
L1
 62
     7
100
AcDbLine
 10
11.91722936663664
 20
6.174734384436335
 30
0.0
 11
11.91722936663664
 21
6.571734384436366
 31
0.0
  0
LINE
  5
55E3
330
17
100
AcDbEntity
  8
L1
 62
     7
100
AcDbLine
 10
11.94222936663664
 20
6.771734384436328
 30
0.0
 11
12.98222936663664
 21
6.771734384436332
 31
0.0
  0
LINE
  5
55E4
330
17
100
AcDbEntity
  8
L1
 62
     7
100
AcDbLine
 10
11.68322936663664
 20
6.571734384436368
 30
0.0
 11
12.04758031330497
 21
6.571734384436368
 31
0.0
  0
LINE
  5
55E5
330
17
100
AcDbEntity
  8
L1
 62
     7
100
AcDbLine
 10
13.24122936663664
 20
6.681734384436367
 30
0.0
 11
13.24122936663664
 21
6.571734384436368
 31
0.0
  0
LINE
  5
55E6
330
17
100
AcDbEntity
  8
L1
 62
     7
100
AcDbLine
 10
11.68322936663664
 20
6.681734384436367
 30
0.0
 11
11.68322936663664
 21
6.571734384436368
 31
0.0
  0
LINE
  5
55E7
330
17
100
AcDbEntity
  8
L1
 62
     7
100
AcDbLine
 10
11.68322936663664
 20
6.681734384436367
 30
0.0
 11
13.24122936663664
 21
6.681734384436367
 31
0.0
  0
LINE
  5
55E8
330
17
100
AcDbEntity
  8
L1
 62
     7
100
AcDbLine
 10
11.94222936663664
 20
6.771734384436328
 30
0.0
 11
11.68322936663664
 21
6.681734384436367
 31
0.0
  0
LINE
  5
55E9
330
17
100
AcDbEntity
  8
L1
 62
     7
100
AcDbLine
 10
13.24122936663664
 20
6.681734384436367
 30
0.0
 11
12.98222936663664
 21
6.771734384436332
 31
0.0
  0
LINE
  5
55EA
330
17
100
AcDbEntity
  8
L1
 62
     7
100
AcDbLine
 10
12.94134672156701
 20
6.571734384436368
 30
0.0
 11
13.24122936663664
 21
6.571734384436368
 31
0.0
  0
LINE
  5
55EB
330
17
100
AcDbEntity
  8
L1
 62
     7
100
AcDbLine
 10
11.69922936663664
 20
6.681734384436367
 30
0.0
 11
11.69922936663664
 21
6.571734384436368
 31
0.0
  0
LINE
  5
55EC
330
17
100
AcDbEntity
  8
L1
 62
     7
100
AcDbLine
 10
11.71522936663664
 20
6.681734384436367
 30
0.0
 11
11.71522936663664
 21
6.571734384436368
 31
0.0
  0
LINE
  5
55ED
330
17
100
AcDbEntity
  8
L1
 62
     7
100
AcDbLine
 10
11.73122936663664
 20
6.681734384436367
 30
0.0
 11
11.73122936663664
 21
6.571734384436368
 31
0.0
  0
LINE
  5
55EE
330
17
100
AcDbEntity
  8
L1
 62
     7
100
AcDbLine
 10
11.74722936663664
 20
6.681734384436367
 30
0.0
 11
11.74722936663664
 21
6.571734384436368
 31
0.0
  0
LINE
  5
55EF
330
17
100
AcDbEntity
  8
L1
 62
     7
100
AcDbLine
 10
11.76322936663664
 20
6.681734384436367
 30
0.0
 11
11.76322936663664
 21
6.571734384436368
 31
0.0
  0
LINE
  5
55F0
330
17
100
AcDbEntity
  8
L1
 62
     7
100
AcDbLine
 10
11.77922936663664
 20
6.681734384436367
 30
0.0
 11
11.77922936663664
 21
6.571734384436368
 31
0.0
  0
LINE
  5
55F1
330
17
100
AcDbEntity
  8
L1
 62
     7
100
AcDbLine
 10
11.79522936663664
 20
6.681734384436367
 30
0.0
 11
11.79522936663664
 21
6.571734384436368
 31
0.0
  0
LINE
  5
55F2
330
17
100
AcDbEntity
  8
L1
 62
     7
100
AcDbLine
 10
11.81122936663664
 20
6.681734384436367
 30
0.0
 11
11.81122936663664
 21
6.571734384436368
 31
0.0
  0
LINE
  5
55F3
330
17
100
AcDbEntity
  8
L1
 62
     7
100
AcDbLine
 10
11.82722936663664
 20
6.681734384436367
 30
0.0
 11
11.82722936663664
 21
6.571734384436368
 31
0.0
  0
LINE
  5
55F4
330
17
100
AcDbEntity
  8
L1
 62
     7
100
AcDbLine
 10
11.84322936663664
 20
6.681734384436367
 30
0.0
 11
11.84322936663664
 21
6.571734384436368
 31
0.0
  0
LINE
  5
55F5
330
17
100
AcDbEntity
  8
L1
 62
     7
100
AcDbLine
 10
11.85922936663664
 20
6.681734384436367
 30
0.0
 11
11.85922936663664
 21
6.571734384436368
 31
0.0
  0
LINE
  5
55F6
330
17
100
AcDbEntity
  8
L1
 62
     7
100
AcDbLine
 10
11.87522936663664
 20
6.681734384436367
 30
0.0
 11
11.87522936663664
 21
6.571734384436368
 31
0.0
  0
LINE
  5
55F7
330
17
100
AcDbEntity
  8
L1
 62
     7
100
AcDbLine
 10
11.89122936663664
 20
6.681734384436367
 30
0.0
 11
11.89122936663664
 21
6.571734384436368
 31
0.0
  0
LINE
  5
55F8
330
17
100
AcDbEntity
  8
L1
 62
     7
100
AcDbLine
 10
11.90722936663664
 20
6.681734384436367
 30
0.0
 11
11.90722936663664
 21
6.571734384436368
 31
0.0
  0
LINE
  5
55F9
330
17
100
AcDbEntity
  8
L1
 62
     7
100
AcDbLine
 10
11.92322936663664
 20
6.681734384436367
 30
0.0
 11
11.92322936663664
 21
6.571734384436368
 31
0.0
  0
LINE
  5
55FA
330
17
100
AcDbEntity
  8
L1
 62
     7
100
AcDbLine
 10
11.93922936663664
 20
6.681734384436367
 30
0.0
 11
11.93922936663664
 21
6.571734384436368
 31
0.0
  0
LINE
  5
55FB
330
17
100
AcDbEntity
  8
L1
 62
     7
100
AcDbLine
 10
11.95522936663664
 20
6.681734384436367
 30
0.0
 11
11.95522936663664
 21
6.571734384436368
 31
0.0
  0
LINE
  5
55FC
330
17
100
AcDbEntity
  8
L1
 62
     7
100
AcDbLine
 10
11.97122936663664
 20
6.681734384436367
 30
0.0
 11
11.97122936663664
 21
6.571734384436368
 31
0.0
  0
LINE
  5
55FD
330
17
100
AcDbEntity
  8
L1
 62
     7
100
AcDbLine
 10
11.98722936663664
 20
6.681734384436367
 30
0.0
 11
11.98722936663664
 21
6.571734384436368
 31
0.0
  0
LINE
  5
55FE
330
17
100
AcDbEntity
  8
L1
 62
     7
100
AcDbLine
 10
12.00322936663664
 20
6.681734384436367
 30
0.0
 11
12.00322936663664
 21
6.571734384436368
 31
0.0
  0
LINE
  5
55FF
330
17
100
AcDbEntity
  8
L1
 62
     7
100
AcDbLine
 10
12.01922936663664
 20
6.681734384436367
 30
0.0
 11
12.01922936663664
 21
6.571734384436368
 31
0.0
  0
LINE
  5
5600
330
17
100
AcDbEntity
  8
L1
 62
     7
100
AcDbLine
 10
12.03522936663664
 20
6.681734384436367
 30
0.0
 11
12.03522936663664
 21
6.571734384436368
 31
0.0
  0
LINE
  5
5601
330
17
100
AcDbEntity
  8
L1
 62
     7
100
AcDbLine
 10
12.05122936663664
 20
6.681734384436367
 30
0.0
 11
12.05122936663664
 21
6.571734384436368
 31
0.0
  0
LINE
  5
5602
330
17
100
AcDbEntity
  8
L1
 62
     7
100
AcDbLine
 10
12.06722936663664
 20
6.681734384436367
 30
0.0
 11
12.06722936663664
 21
6.571734384436368
 31
0.0
  0
LINE
  5
5603
330
17
100
AcDbEntity
  8
L1
 62
     7
100
AcDbLine
 10
12.08322936663664
 20
6.681734384436367
 30
0.0
 11
12.08322936663664
 21
6.571734384436368
 31
0.0
  0
LINE
  5
5604
330
17
100
AcDbEntity
  8
L1
 62
     7
100
AcDbLine
 10
12.09922936663664
 20
6.681734384436367
 30
0.0
 11
12.09922936663664
 21
6.571734384436368
 31
0.0
  0
LINE
  5
5605
330
17
100
AcDbEntity
  8
L1
 62
     7
100
AcDbLine
 10
12.11522936663664
 20
6.681734384436367
 30
0.0
 11
12.11522936663664
 21
6.571734384436368
 31
0.0
  0
LINE
  5
5606
330
17
100
AcDbEntity
  8
L1
 62
     7
100
AcDbLine
 10
12.13122936663664
 20
6.681734384436367
 30
0.0
 11
12.13122936663664
 21
6.571734384436368
 31
0.0
  0
LINE
  5
5607
330
17
100
AcDbEntity
  8
L1
 62
     7
100
AcDbLine
 10
12.14722936663664
 20
6.681734384436367
 30
0.0
 11
12.14722936663664
 21
6.571734384436368
 31
0.0
  0
LINE
  5
5608
330
17
100
AcDbEntity
  8
L1
 62
     7
100
AcDbLine
 10
12.16322936663664
 20
6.681734384436367
 30
0.0
 11
12.16322936663664
 21
6.571734384436368
 31
0.0
  0
LINE
  5
5609
330
17
100
AcDbEntity
  8
L1
 62
     7
100
AcDbLine
 10
12.17922936663664
 20
6.681734384436367
 30
0.0
 11
12.17922936663664
 21
6.571734384436368
 31
0.0
  0
LINE
  5
560A
330
17
100
AcDbEntity
  8
L1
 62
     7
100
AcDbLine
 10
12.19522936663664
 20
6.681734384436367
 30
0.0
 11
12.19522936663664
 21
6.571734384436368
 31
0.0
  0
LINE
  5
560B
330
17
100
AcDbEntity
  8
L1
 62
     7
100
AcDbLine
 10
12.21122936663664
 20
6.681734384436367
 30
0.0
 11
12.21122936663664
 21
6.571734384436368
 31
0.0
  0
LINE
  5
560C
330
17
100
AcDbEntity
  8
L1
 62
     7
100
AcDbLine
 10
12.22722936663664
 20
6.681734384436367
 30
0.0
 11
12.22722936663664
 21
6.571734384436368
 31
0.0
  0
LINE
  5
560D
330
17
100
AcDbEntity
  8
L1
 62
     7
100
AcDbLine
 10
12.24322936663664
 20
6.681734384436367
 30
0.0
 11
12.24322936663664
 21
6.571734384436368
 31
0.0
  0
LINE
  5
560E
330
17
100
AcDbEntity
  8
L1
 62
     7
100
AcDbLine
 10
12.25922936663664
 20
6.681734384436367
 30
0.0
 11
12.25922936663664
 21
6.571734384436368
 31
0.0
  0
LINE
  5
560F
330
17
100
AcDbEntity
  8
L1
 62
     7
100
AcDbLine
 10
12.27522936663664
 20
6.681734384436367
 30
0.0
 11
12.27522936663664
 21
6.571734384436368
 31
0.0
  0
LINE
  5
5610
330
17
100
AcDbEntity
  8
L1
 62
     7
100
AcDbLine
 10
12.29122936663664
 20
6.681734384436367
 30
0.0
 11
12.29122936663664
 21
6.571734384436368
 31
0.0
  0
LINE
  5
5611
330
17
100
AcDbEntity
  8
L1
 62
     7
100
AcDbLine
 10
12.30722936663664
 20
6.681734384436367
 30
0.0
 11
12.30722936663664
 21
6.571734384436368
 31
0.0
  0
LINE
  5
5612
330
17
100
AcDbEntity
  8
L1
 62
     7
100
AcDbLine
 10
12.32322936663664
 20
6.681734384436367
 30
0.0
 11
12.32322936663664
 21
6.571734384436368
 31
0.0
  0
LINE
  5
5613
330
17
100
AcDbEntity
  8
L1
 62
     7
100
AcDbLine
 10
12.33922936663664
 20
6.681734384436367
 30
0.0
 11
12.33922936663664
 21
6.571734384436368
 31
0.0
  0
LINE
  5
5614
330
17
100
AcDbEntity
  8
L1
 62
     7
100
AcDbLine
 10
12.35522936663664
 20
6.681734384436367
 30
0.0
 11
12.35522936663664
 21
6.571734384436368
 31
0.0
  0
LINE
  5
5615
330
17
100
AcDbEntity
  8
L1
 62
     7
100
AcDbLine
 10
12.37122936663664
 20
6.681734384436367
 30
0.0
 11
12.37122936663664
 21
6.571734384436368
 31
0.0
  0
LINE
  5
5616
330
17
100
AcDbEntity
  8
L1
 62
     7
100
AcDbLine
 10
12.38722936663664
 20
6.681734384436367
 30
0.0
 11
12.38722936663664
 21
6.571734384436368
 31
0.0
  0
LINE
  5
5617
330
17
100
AcDbEntity
  8
L1
 62
     7
100
AcDbLine
 10
12.40322936663664
 20
6.681734384436367
 30
0.0
 11
12.40322936663664
 21
6.571734384436368
 31
0.0
  0
LINE
  5
5618
330
17
100
AcDbEntity
  8
L1
 62
     7
100
AcDbLine
 10
12.41922936663664
 20
6.681734384436367
 30
0.0
 11
12.41922936663664
 21
6.571734384436368
 31
0.0
  0
LINE
  5
5619
330
17
100
AcDbEntity
  8
L1
 62
     7
100
AcDbLine
 10
12.43522936663664
 20
6.681734384436367
 30
0.0
 11
12.43522936663664
 21
6.571734384436368
 31
0.0
  0
LINE
  5
561A
330
17
100
AcDbEntity
  8
L1
 62
     7
100
AcDbLine
 10
12.45122936663664
 20
6.681734384436367
 30
0.0
 11
12.45122936663664
 21
6.571734384436368
 31
0.0
  0
LINE
  5
561B
330
17
100
AcDbEntity
  8
L1
 62
     7
100
AcDbLine
 10
12.46722936663664
 20
6.681734384436367
 30
0.0
 11
12.46722936663664
 21
6.571734384436368
 31
0.0
  0
LINE
  5
561C
330
17
100
AcDbEntity
  8
L1
 62
     7
100
AcDbLine
 10
12.48322936663664
 20
6.681734384436367
 30
0.0
 11
12.48322936663664
 21
6.571734384436368
 31
0.0
  0
LINE
  5
561D
330
17
100
AcDbEntity
  8
L1
 62
     7
100
AcDbLine
 10
12.49922936663664
 20
6.681734384436367
 30
0.0
 11
12.49922936663664
 21
6.571734384436368
 31
0.0
  0
LINE
  5
561E
330
17
100
AcDbEntity
  8
L1
 62
     7
100
AcDbLine
 10
12.51522936663664
 20
6.681734384436367
 30
0.0
 11
12.51522936663664
 21
6.571734384436368
 31
0.0
  0
LINE
  5
561F
330
17
100
AcDbEntity
  8
L1
 62
     7
100
AcDbLine
 10
12.53122936663664
 20
6.681734384436367
 30
0.0
 11
12.53122936663664
 21
6.571734384436368
 31
0.0
  0
LINE
  5
5620
330
17
100
AcDbEntity
  8
L1
 62
     7
100
AcDbLine
 10
12.54722936663664
 20
6.681734384436367
 30
0.0
 11
12.54722936663664
 21
6.571734384436368
 31
0.0
  0
LINE
  5
5621
330
17
100
AcDbEntity
  8
L1
 62
     7
100
AcDbLine
 10
12.56322936663664
 20
6.681734384436367
 30
0.0
 11
12.56322936663664
 21
6.571734384436368
 31
0.0
  0
LINE
  5
5622
330
17
100
AcDbEntity
  8
L1
 62
     7
100
AcDbLine
 10
12.57922936663664
 20
6.681734384436367
 30
0.0
 11
12.57922936663664
 21
6.571734384436368
 31
0.0
  0
LINE
  5
5623
330
17
100
AcDbEntity
  8
L1
 62
     7
100
AcDbLine
 10
12.59522936663664
 20
6.681734384436367
 30
0.0
 11
12.59522936663664
 21
6.571734384436368
 31
0.0
  0
LINE
  5
5624
330
17
100
AcDbEntity
  8
L1
 62
     7
100
AcDbLine
 10
12.61122936663664
 20
6.681734384436367
 30
0.0
 11
12.61122936663664
 21
6.571734384436368
 31
0.0
  0
LINE
  5
5625
330
17
100
AcDbEntity
  8
L1
 62
     7
100
AcDbLine
 10
12.62722936663664
 20
6.681734384436367
 30
0.0
 11
12.62722936663664
 21
6.571734384436368
 31
0.0
  0
LINE
  5
5626
330
17
100
AcDbEntity
  8
L1
 62
     7
100
AcDbLine
 10
12.64322936663664
 20
6.681734384436367
 30
0.0
 11
12.64322936663664
 21
6.571734384436368
 31
0.0
  0
LINE
  5
5627
330
17
100
AcDbEntity
  8
L1
 62
     7
100
AcDbLine
 10
12.65922936663664
 20
6.681734384436367
 30
0.0
 11
12.65922936663664
 21
6.571734384436368
 31
0.0
  0
LINE
  5
5628
330
17
100
AcDbEntity
  8
L1
 62
     7
100
AcDbLine
 10
12.67522936663664
 20
6.681734384436367
 30
0.0
 11
12.67522936663664
 21
6.571734384436368
 31
0.0
  0
LINE
  5
5629
330
17
100
AcDbEntity
  8
L1
 62
     7
100
AcDbLine
 10
12.69122936663664
 20
6.681734384436367
 30
0.0
 11
12.69122936663664
 21
6.571734384436368
 31
0.0
  0
LINE
  5
562A
330
17
100
AcDbEntity
  8
L1
 62
     7
100
AcDbLine
 10
12.70722936663664
 20
6.681734384436367
 30
0.0
 11
12.70722936663664
 21
6.571734384436368
 31
0.0
  0
LINE
  5
562B
330
17
100
AcDbEntity
  8
L1
 62
     7
100
AcDbLine
 10
12.72322936663664
 20
6.681734384436367
 30
0.0
 11
12.72322936663664
 21
6.571734384436368
 31
0.0
  0
LINE
  5
562C
330
17
100
AcDbEntity
  8
L1
 62
     7
100
AcDbLine
 10
12.73922936663664
 20
6.681734384436367
 30
0.0
 11
12.73922936663664
 21
6.571734384436368
 31
0.0
  0
LINE
  5
562D
330
17
100
AcDbEntity
  8
L1
 62
     7
100
AcDbLine
 10
12.75522936663664
 20
6.681734384436367
 30
0.0
 11
12.75522936663664
 21
6.571734384436368
 31
0.0
  0
LINE
  5
562E
330
17
100
AcDbEntity
  8
L1
 62
     7
100
AcDbLine
 10
12.77122936663664
 20
6.681734384436367
 30
0.0
 11
12.77122936663664
 21
6.571734384436368
 31
0.0
  0
LINE
  5
562F
330
17
100
AcDbEntity
  8
L1
 62
     7
100
AcDbLine
 10
12.78722936663664
 20
6.681734384436367
 30
0.0
 11
12.78722936663664
 21
6.571734384436368
 31
0.0
  0
LINE
  5
5630
330
17
100
AcDbEntity
  8
L1
 62
     7
100
AcDbLine
 10
12.80322936663664
 20
6.681734384436367
 30
0.0
 11
12.80322936663664
 21
6.571734384436368
 31
0.0
  0
LINE
  5
5631
330
17
100
AcDbEntity
  8
L1
 62
     7
100
AcDbLine
 10
12.81922936663664
 20
6.681734384436367
 30
0.0
 11
12.81922936663664
 21
6.571734384436368
 31
0.0
  0
LINE
  5
5632
330
17
100
AcDbEntity
  8
L1
 62
     7
100
AcDbLine
 10
12.83522936663664
 20
6.681734384436367
 30
0.0
 11
12.83522936663664
 21
6.571734384436368
 31
0.0
  0
LINE
  5
5633
330
17
100
AcDbEntity
  8
L1
 62
     7
100
AcDbLine
 10
12.85122936663664
 20
6.681734384436367
 30
0.0
 11
12.85122936663664
 21
6.571734384436368
 31
0.0
  0
LINE
  5
5634
330
17
100
AcDbEntity
  8
L1
 62
     7
100
AcDbLine
 10
12.86722936663664
 20
6.681734384436367
 30
0.0
 11
12.86722936663664
 21
6.571734384436368
 31
0.0
  0
LINE
  5
5635
330
17
100
AcDbEntity
  8
L1
 62
     7
100
AcDbLine
 10
12.88322936663664
 20
6.681734384436367
 30
0.0
 11
12.88322936663664
 21
6.571734384436368
 31
0.0
  0
LINE
  5
5636
330
17
100
AcDbEntity
  8
L1
 62
     7
100
AcDbLine
 10
12.89922936663664
 20
6.681734384436367
 30
0.0
 11
12.89922936663664
 21
6.571734384436368
 31
0.0
  0
LINE
  5
5637
330
17
100
AcDbEntity
  8
L1
 62
     7
100
AcDbLine
 10
12.91522936663664
 20
6.681734384436367
 30
0.0
 11
12.91522936663664
 21
6.571734384436368
 31
0.0
  0
LINE
  5
5638
330
17
100
AcDbEntity
  8
L1
 62
     7
100
AcDbLine
 10
12.93122936663664
 20
6.681734384436367
 30
0.0
 11
12.93122936663664
 21
6.571734384436368
 31
0.0
  0
LINE
  5
5639
330
17
100
AcDbEntity
  8
L1
 62
     7
100
AcDbLine
 10
12.94722936663664
 20
6.681734384436367
 30
0.0
 11
12.94722936663664
 21
6.571734384436368
 31
0.0
  0
LINE
  5
563A
330
17
100
AcDbEntity
  8
L1
 62
     7
100
AcDbLine
 10
12.96322936663664
 20
6.681734384436367
 30
0.0
 11
12.96322936663664
 21
6.571734384436368
 31
0.0
  0
LINE
  5
563B
330
17
100
AcDbEntity
  8
L1
 62
     7
100
AcDbLine
 10
12.97922936663664
 20
6.681734384436367
 30
0.0
 11
12.97922936663664
 21
6.571734384436368
 31
0.0
  0
LINE
  5
563C
330
17
100
AcDbEntity
  8
L1
 62
     7
100
AcDbLine
 10
12.99522936663664
 20
6.681734384436367
 30
0.0
 11
12.99522936663664
 21
6.571734384436368
 31
0.0
  0
LINE
  5
563D
330
17
100
AcDbEntity
  8
L1
 62
     7
100
AcDbLine
 10
13.01122936663664
 20
6.681734384436367
 30
0.0
 11
13.01122936663664
 21
6.571734384436368
 31
0.0
  0
LINE
  5
563E
330
17
100
AcDbEntity
  8
L1
 62
     7
100
AcDbLine
 10
13.02722936663664
 20
6.681734384436367
 30
0.0
 11
13.02722936663664
 21
6.571734384436368
 31
0.0
  0
LINE
  5
563F
330
17
100
AcDbEntity
  8
L1
 62
     7
100
AcDbLine
 10
13.04322936663664
 20
6.681734384436367
 30
0.0
 11
13.04322936663664
 21
6.571734384436368
 31
0.0
  0
LINE
  5
5640
330
17
100
AcDbEntity
  8
L1
 62
     7
100
AcDbLine
 10
13.05922936663664
 20
6.681734384436367
 30
0.0
 11
13.05922936663664
 21
6.571734384436368
 31
0.0
  0
LINE
  5
5641
330
17
100
AcDbEntity
  8
L1
 62
     7
100
AcDbLine
 10
13.07522936663664
 20
6.681734384436367
 30
0.0
 11
13.07522936663664
 21
6.571734384436368
 31
0.0
  0
LINE
  5
5642
330
17
100
AcDbEntity
  8
L1
 62
     7
100
AcDbLine
 10
13.09122936663664
 20
6.681734384436367
 30
0.0
 11
13.09122936663664
 21
6.571734384436368
 31
0.0
  0
LINE
  5
5643
330
17
100
AcDbEntity
  8
L1
 62
     7
100
AcDbLine
 10
13.10722936663664
 20
6.681734384436367
 30
0.0
 11
13.10722936663664
 21
6.571734384436368
 31
0.0
  0
LINE
  5
5644
330
17
100
AcDbEntity
  8
L1
 62
     7
100
AcDbLine
 10
13.12322936663664
 20
6.681734384436367
 30
0.0
 11
13.12322936663664
 21
6.571734384436368
 31
0.0
  0
LINE
  5
5645
330
17
100
AcDbEntity
  8
L1
 62
     7
100
AcDbLine
 10
13.13922936663664
 20
6.681734384436367
 30
0.0
 11
13.13922936663664
 21
6.571734384436368
 31
0.0
  0
LINE
  5
5646
330
17
100
AcDbEntity
  8
L1
 62
     7
100
AcDbLine
 10
13.15522936663664
 20
6.681734384436367
 30
0.0
 11
13.15522936663664
 21
6.571734384436368
 31
0.0
  0
LINE
  5
5647
330
17
100
AcDbEntity
  8
L1
 62
     7
100
AcDbLine
 10
13.17122936663664
 20
6.681734384436367
 30
0.0
 11
13.17122936663664
 21
6.571734384436368
 31
0.0
  0
LINE
  5
5648
330
17
100
AcDbEntity
  8
L1
 62
     7
100
AcDbLine
 10
13.18722936663664
 20
6.681734384436367
 30
0.0
 11
13.18722936663664
 21
6.571734384436368
 31
0.0
  0
LINE
  5
5649
330
17
100
AcDbEntity
  8
L1
 62
     7
100
AcDbLine
 10
13.20322936663664
 20
6.681734384436367
 30
0.0
 11
13.20322936663664
 21
6.571734384436368
 31
0.0
  0
LINE
  5
564A
330
17
100
AcDbEntity
  8
L1
 62
     7
100
AcDbLine
 10
13.21922936663664
 20
6.681734384436367
 30
0.0
 11
13.21922936663664
 21
6.571734384436368
 31
0.0
  0
ARC
  5
564B
330
17
100
AcDbEntity
  8
L1
 62
     7
100
AcDbCircle
 10
12.46222936663664
 20
4.175534384436352
 30
0.0
 40
1.499199999999989
100
AcDbArc
 50
76.73497076972231
 51
103.2650292302761
  0
ARC
  5
564C
330
17
100
AcDbEntity
  8
L1
 62
     7
100
AcDbCircle
 10
11.77422936663662
 20
4.175534384436367
 30
0.0
 40
1.499199999999989
100
AcDbArc
 50
76.7349707697214
 51
89.99999999999861
  0
ARC
  5
564D
330
17
100
AcDbEntity
  8
L1
 62
     7
100
AcDbCircle
 10
13.15022936663669
 20
4.175534384436358
 30
0.0
 40
1.499199999999989
100
AcDbArc
 50
90.00000000000104
 51
103.2650292302785
  0
LINE
  5
564E
330
17
100
AcDbEntity
  8
L1
 62
     7
100
AcDbLine
 10
11.84822936663665
 20
6.174734384436334
 30
0.0
 11
13.07622936663665
 21
6.174734384436334
 31
0.0
  0
LINE
  5
5653
330
17
100
AcDbEntity
  8
L1
 62
   253
100
AcDbLine
 10
11.68304749161937
 20
5.38473438443635
 30
0.0
 11
10.91293354882058
 21
5.38473438443635
 31
0.0
  0
LINE
  5
5654
330
17
100
AcDbEntity
  8
L1
 62
   253
100
AcDbLine
 10
13.24141124165395
 20
5.384734384436351
 30
0.0
 11
14.01152518445274
 21
5.384734384436353
 31
0.0
  0
TEXT
  5
5684
330
17
100
AcDbEntity
  8
L1
 62
   253
100
AcDbText
 10
10.18231178777953
 20
5.258013512919347
 30
0.0
 40
0.14
  1
PANEL
100
AcDbText
  0
TEXT
  5
5691
330
17
100
AcDbEntity
  8
L1
 62
   253
100
AcDbText
 10
2.735497158823896
 20
5.258013512919347
 30
0.0
 40
0.14
  1
PANEL
100
AcDbText
  0
LINE
  5
5694
330
17
100
AcDbEntity
  8
L1
 62
     7
100
AcDbLine
 10
6.380487442209457
 20
7.734037972170157
 30
0.0
 11
6.350487442209457
 21
7.734037972170157
 31
0.0
  0
LINE
  5
5695
330
17
100
AcDbEntity
  8
L1
 62
     7
100
AcDbLine
 10
6.350487442209457
 20
7.734037972170157
 30
0.0
 11
5.660521731320386
 21
8.211484327626685
 31
0.0
  0
MTEXT
  5
5696
330
17
100
AcDbEntity
  8
L1
 62
     7
100
AcDbMText
 10
6.865487442209456
 20
7.734037972170156
 30
0.0
 40
0.14
 41
0.0
 71
     5
 72
     1
  1
\A1;1.50 DIA.
 73
     1
 44
1.0
  0
SOLID
  5
5697
330
17
100
AcDbEntity
  8
L1
 62
     7
100
AcDbTrace
 10
5.663366885991184
 20
8.215595908210747
 30
0.0
 11
5.657676576649588
 21
8.207372747042622
 31
0.0
 12
5.635852247816012
 22
8.228555255651471
 32
0.0
 13
5.635852247816012
 23
8.228555255651471
 33
0.0
  0
LINE
  5
5698
330
17
100
AcDbEntity
  8
L1
 62
     7
100
AcDbLine
 10
4.925414737681019
 20
8.657889095474855
 30
0.0
 11
5.105414737681019
 21
8.657889095474855
 31
0.0
  0
LINE
  5
5699
330
17
100
AcDbEntity
  8
L1
 62
     7
100
AcDbLine
 10
5.01541473768102
 20
8.567889095474855
 30
0.0
 11
5.01541473768102
 21
8.747889095474857
 31
0.0
  0
LINE
  5
569A
330
17
100
AcDbEntity
  8
L1
 62
     7
100
AcDbLine
 10
13.04472936663664
 20
6.771734384436332
 30
0.0
 11
14.65997132623759
 21
6.771734384436331
 31
0.0
  0
LINE
  5
569B
330
17
100
AcDbEntity
  8
L1
 62
     7
100
AcDbLine
 10
14.07402518445274
 20
5.384734384436353
 30
0.0
 11
14.65997132623759
 21
5.384734384436353
 31
0.0
  0
LINE
  5
569C
330
17
100
AcDbEntity
  8
L1
 62
     7
100
AcDbLine
 10
14.62997132623759
 20
6.74173438443633
 30
0.0
 11
14.62997132623759
 21
6.259845582745195
 31
0.0
  0
LINE
  5
569D
330
17
100
AcDbEntity
  8
L1
 62
     7
100
AcDbLine
 10
14.62997132623759
 20
5.414734384436354
 30
0.0
 11
14.62997132623759
 21
5.826512249411861
 31
0.0
  0
SOLID
  5
569E
330
17
100
AcDbEntity
  8
L1
 62
     7
100
AcDbTrace
 10
14.62497132623759
 20
6.74173438443633
 30
0.0
 11
14.63497132623759
 21
6.74173438443633
 31
0.0
 12
14.62997132623759
 22
6.771734384436331
 32
0.0
 13
14.62997132623759
 23
6.771734384436331
 33
0.0
  0
SOLID
  5
569F
330
17
100
AcDbEntity
  8
L1
 62
     7
100
AcDbTrace
 10
14.62497132623759
 20
5.414734384436354
 30
0.0
 11
14.63497132623759
 21
5.414734384436354
 31
0.0
 12
14.62997132623759
 22
5.384734384436353
 32
0.0
 13
14.62997132623759
 23
5.384734384436353
 33
0.0
  0
MTEXT
  5
56A0
330
17
100
AcDbEntity
  8
L1
 62
     7
100
AcDbMText
 10
14.62997132623758
 20
6.043178916078531
 30
0.0
 40
0.14
 41
0.0
 71
     5
 72
     1
  1
\A1;1.40 IN. EXTENDED\P1.15 IN. DEPRESSED
 73
     1
 44
1.0
  0
LINE
  5
56A1
330
17
100
AcDbEntity
  8
L1
 62
     7
100
AcDbLine
 10
5.877414737681005
 20
4.45973438443633
 30
0.0
 11
7.526920023310852
 21
4.459734384436329
 31
0.0
  0
LINE
  5
56A2
330
17
100
AcDbEntity
  8
L1
 62
     7
100
AcDbLine
 10
5.597914737681005
 20
6.771734384436332
 30
0.0
 11
7.526920023310853
 21
6.771734384436331
 31
0.0
  0
LINE
  5
56A3
330
17
100
AcDbEntity
  8
L1
 62
     7
100
AcDbLine
 10
7.496920023310852
 20
4.48973438443633
 30
0.0
 11
7.496920023310852
 21
5.451653643482612
 31
0.0
  0
LINE
  5
56A4
330
17
100
AcDbEntity
  8
L1
 62
     7
100
AcDbLine
 10
7.496920023310853
 20
6.74173438443633
 30
0.0
 11
7.496920023310852
 21
5.651653643482611
 31
0.0
  0
SOLID
  5
56A5
330
17
100
AcDbEntity
  8
L1
 62
     7
100
AcDbTrace
 10
7.491920023310852
 20
4.48973438443633
 30
0.0
 11
7.501920023310852
 21
4.48973438443633
 31
0.0
 12
7.496920023310852
 22
4.459734384436329
 32
0.0
 13
7.496920023310852
 23
4.459734384436329
 33
0.0
  0
SOLID
  5
56A6
330
17
100
AcDbEntity
  8
L1
 62
     7
100
AcDbTrace
 10
7.491920023310853
 20
6.74173438443633
 30
0.0
 11
7.501920023310852
 21
6.74173438443633
 31
0.0
 12
7.496920023310853
 22
6.771734384436331
 32
0.0
 13
7.496920023310853
 23
6.771734384436331
 33
0.0
  0
MTEXT
  5
56A7
330
17
100
AcDbEntity
  8
L1
 62
     7
100
AcDbMText
 10
7.496920023310851
 20
5.551653643482612
 30
0.0
 40
0.14
 41
0.0
 71
     5
 72
     1
  1
\A1;2.31 REF
 73
     1
 44
1.0
  0
LINE
  5
56A8
330
17
100
AcDbEntity
  8
L1
 62
     7
100
AcDbLine
 10
5.75741473768101
 20
3.23988142690282
 30
0.0
 11
6.555376969906568
 21
3.23988142690282
 31
0.0
  0
LINE
  5
56A9
330
17
100
AcDbEntity
  8
L1
 62
     7
100
AcDbLine
 10
5.75741473768101
 20
1.709881426902819
 30
0.0
 11
6.555376969906567
 21
1.709881426902819
 31
0.0
  0
LINE
  5
56AA
330
17
100
AcDbEntity
  8
L1
 62
     7
100
AcDbLine
 10
6.525376969906568
 20
3.20988142690282
 30
0.0
 11
6.525376969906568
 21
2.368077681960846
 31
0.0
  0
LINE
  5
56AB
330
17
100
AcDbEntity
  8
L1
 62
     7
100
AcDbLine
 10
6.525376969906567
 20
1.739881426902819
 30
0.0
 11
6.525376969906568
 21
2.168077681960845
 31
0.0
  0
SOLID
  5
56AC
330
17
100
AcDbEntity
  8
L1
 62
     7
100
AcDbTrace
 10
6.520376969906568
 20
3.20988142690282
 30
0.0
 11
6.530376969906567
 21
3.20988142690282
 31
0.0
 12
6.525376969906568
 22
3.23988142690282
 32
0.0
 13
6.525376969906568
 23
3.23988142690282
 33
0.0
  0
SOLID
  5
56AD
330
17
100
AcDbEntity
  8
L1
 62
     7
100
AcDbTrace
 10
6.520376969906567
 20
1.739881426902819
 30
0.0
 11
6.530376969906567
 21
1.739881426902819
 31
0.0
 12
6.525376969906567
 22
1.709881426902819
 32
0.0
 13
6.525376969906567
 23
1.709881426902819
 33
0.0
  0
MTEXT
  5
56AE
330
17
100
AcDbEntity
  8
L1
 62
     7
100
AcDbMText
 10
6.525376969906567
 20
2.268077681960846
 30
0.0
 40
0.14
 41
0.0
 71
     5
 72
     1
  1
\A1;1.53
 73
     1
 44
1.0
  0
LINE
  5
56AF
330
17
100
AcDbEntity
  8
L1
 62
     7
100
AcDbLine
 10
4.21591473768103
 20
1.76738142690282
 30
0.0
 11
4.21591473768103
 21
1.160587876741318
 31
0.0
  0
LINE
  5
56B0
330
17
100
AcDbEntity
  8
L1
 62
     7
100
AcDbLine
 10
5.81491473768101
 20
1.76738142690282
 30
0.0
 11
5.81491473768101
 21
1.160587876741318
 31
0.0
  0
LINE
  5
56B1
330
17
100
AcDbEntity
  8
L1
 62
     7
100
AcDbLine
 10
4.24591473768103
 20
1.190587876741318
 30
0.0
 11
4.950737248437098
 21
1.190587876741318
 31
0.0
  0
LINE
  5
56B2
330
17
100
AcDbEntity
  8
L1
 62
     7
100
AcDbLine
 10
5.78491473768101
 20
1.190587876741318
 30
0.0
 11
5.360737248437098
 21
1.190587876741318
 31
0.0
  0
SOLID
  5
56B3
330
17
100
AcDbEntity
  8
L1
 62
     7
100
AcDbTrace
 10
4.24591473768103
 20
1.195587876741318
 30
0.0
 11
4.24591473768103
 21
1.185587876741318
 31
0.0
 12
4.21591473768103
 22
1.190587876741318
 32
0.0
 13
4.21591473768103
 23
1.190587876741318
 33
0.0
  0
SOLID
  5
56B4
330
17
100
AcDbEntity
  8
L1
 62
     7
100
AcDbTrace
 10
5.78491473768101
 20
1.195587876741318
 30
0.0
 11
5.78491473768101
 21
1.185587876741318
 31
0.0
 12
5.81491473768101
 22
1.190587876741318
 32
0.0
 13
5.81491473768101
 23
1.190587876741318
 33
0.0
  0
MTEXT
  5
56B5
330
17
100
AcDbEntity
  8
L1
 62
     7
100
AcDbMText
 10
5.155737248437098
 20
1.190587876741318
 30
0.0
 40
0.14
 41
0.0
 71
     5
 72
     1
  1
\A1;1.60
 73
     1
 44
1.0
  0
VIEWPORT
  5
30DF
330
14
100
AcDbEntity
 67
     1
  8
0
 62
     7
100
AcDbViewport
 10
6.0
 20
4.5
 30
0.0
 40
12.0
 41
9.0
 68
    -1
 69
     1
 12
6.875498007968127
 22
4.5
 13
0.0
 23
0.0
 14
1.0
 24
1.0
 15
0.25
 25
0.25
 16
0.0
 26
0.0
 36
1.0
 17
0.0
 27
0.0
 37
0.0
 42
50.0
 43
0.0
 44
0.0
 45
9.0
 50
0.0
 51
0.0
 72
   500
 90
    32800
  1

281
     0
 71
     1
 74
     0
110
0.0
120
0.0
130
0.0
111
1.0
121
0.0
131
0.0
112
0.0
122
1.0
132
0.0
 79
     0
146
0.0
170
     0
1001
GENIUS_GENODEF_13
1002
{
1000
HIER
1070
     0
1002
}
1002
{
1000
MANEDIT
1070
     0
1002
}
1002
{
1000
NOSEL
1070
     0
1002
}
1002
{
1000
BEHIND
1070
     0
1002
}
1002
{
1000
OTHER
1070
     0
1002
}
1002
{
1000
REACTOR
1002
}
1001
GENIUS_GENOBJ-N-SDF_13
1002
{
1000
OWNER
1000
GEN
1002
}
1001
GENIUS_GENSCREG_15
1000
PF
1040
1.0
1000
DF
1040
1.0
1000
MIN
1011
0.0
1021
0.0
1031
0.0
1000
MAX
1011
12.0
1021
9.0
1031
0.0
1000
FLAGS
1070
     2
  0
ENDSEC
  0
SECTION
  2
OBJECTS
  0
DICTIONARY
  5
C
330
0
100
AcDbDictionary
281
     1
  3
ACAD_COLOR
350
4090
  3
ACAD_GROUP
350
D
  3
ACAD_LAYOUT
350
34DA
  3
ACAD_MATERIAL
350
408F
  3
ACAD_MLINESTYLE
350
1A
  3
ACAD_PLOTSETTINGS
350
34DB
  3
ACAD_PLOTSTYLENAME
350
34D8
  3
ACAD_TABLESTYLE
350
4091
  3
ACDBVARIABLEDICTIONARY
350
1C5
  3
ACMDICTIONARY
350
30D8
  3
AMG
350
34E1
  3
AMGSNAPSETTINGS
350
3F9D
  3
MAPISURF_MODULE
350
47B8
  0
DICTIONARY
  5
48E1
330
2
100
AcDbDictionary
280
     1
281
     1
  3
ACAD_LAYERFILTERS
360
56B7
  3
ACLYDICTIONARY
360
56B6
  0
DICTIONARY
  5
311D
330
17
100
AcDbDictionary
280
     1
281
     1
  3
ACAD_INDEX
360
4313
  3
ACAD_SORTENTS
360
41FC
  0
DICTIONARY
  5
4090
102
{ACAD_REACTORS
330
C
102
}
330
C
100
AcDbDictionary
281
     1
  0
DICTIONARY
  5
D
102
{ACAD_REACTORS
330
C
102
}
330
C
100
AcDbDictionary
281
     1
  0
DICTIONARY
  5
34DA
102
{ACAD_REACTORS
330
C
102
}
330
C
100
AcDbDictionary
281
     1
  3
Layout1
350
34DD
  3
Model
350
34DC
  0
DICTIONARY
  5
408F
102
{ACAD_REACTORS
330
C
102
}
330
C
100
AcDbDictionary
281
     1
  0
DICTIONARY
  5
1A
102
{ACAD_REACTORS
330
C
102
}
330
C
100
AcDbDictionary
281
     1
  3
STANDARD
350
1B
  0
DICTIONARY
  5
34DB
102
{ACAD_REACTORS
330
C
102
}
330
C
100
AcDbDictionary
281
     1
  0
ACDBDICTIONARYWDFLT
  5
34D8
102
{ACAD_REACTORS
330
C
102
}
330
C
100
AcDbDictionary
281
     1
  3
Normal
350
34D9
100
AcDbDictionaryWithDefault
340
34D9
  0
DICTIONARY
  5
4091
102
{ACAD_REACTORS
330
C
102
}
330
C
100
AcDbDictionary
281
     1
  3
Standard
350
4092
  0
DICTIONARY
  5
1C5
102
{ACAD_REACTORS
330
C
102
}
330
C
100
AcDbDictionary
281
     1
  3
CTABLESTYLE
350
40B2
  3
DIMADEC
350
1C6
  3
DIMASSOC
350
408B
  3
INDEXCTL
350
307F
  3
PROJECTNAME
350
4355
  0
DICTIONARY
  5
30D8
102
{ACAD_REACTORS
330
C
102
}
330
C
100
AcDbDictionary
281
     1
  3
AcmBOMDATA
350
47E8
  3
AcmStdDictionary
350
3F79
  3
AMDTSECTSYM_ARROWCOLOR
350
4099
  0
DICTIONARY
  5
34E1
102
{ACAD_REACTORS
330
C
102
}
330
C
100
AcDbDictionary
281
     1
  3
AcMgSettings
350
3F3C
  3
AMGLAYCFG
350
47F4
  0
DICTIONARY
  5
3F9D
102
{ACAD_REACTORS
330
C
102
}
330
C
100
AcDbDictionary
281
     1
  3
HATCH (1)
350
3F9E
  3
HATCH (2)
350
3F9F
  0
DICTIONARY
  5
56B7
102
{ACAD_REACTORS
330
48E1
102
}
330
48E1
100
AcDbDictionary
281
     1
  0
DICTIONARY
  5
56B6
102
{ACAD_REACTORS
330
48E1
102
}
330
48E1
100
AcDbDictionary
281
     1
1001
ACAD
1000
<All
  0
DICTIONARY
  5
4313
102
{ACAD_REACTORS
330
311D
102
}
330
311D
100
AcDbDictionary
281
     1
  3
*A1
350
4314
  0
SORTENTSTABLE
  5
41FC
102
{ACAD_REACTORS
330
311D
102
}
330
311D
100
AcDbSortentsTable
330
17
331
53E5
  5
53FC
331
53D0
  5
53D8
331
5347
  5
5385
331
532A
  5
535C
331
530D
  5
5331
331
4725
  5
4890
331
53EE
  5
53EE
331
53D9
  5
53E7
331
539F
  5
53CE
331
5382
  5
4FFA
331
53F7
  5
4FF3
331
4FF6
  5
5005
331
4FBC
  5
4FFD
331
1E28
  5
1E28
331
4FFF
  5
51DF
331
51DA
  5
526E
331
1E96
  5
1E96
331
55E2
  5
55F7
331
5275
  5
52B5
331
5625
  5
563A
331
5608
  5
561D
331
55EB
  5
5600
331
55CE
  5
55E6
331
563E
  5
5694
331
562E
  5
5643
331
5611
  5
5626
331
55F4
  5
5609
331
55D7
  5
55EE
331
569E
  5
56AB
331
56B3
  5
55D3
331
5647
  5
569D
331
5637
  5
564C
331
561A
  5
562F
331
55FD
  5
5612
331
56A7
  5
55E5
331
20F0
  5
20F0
331
52F1
  5
5315
331
3B48
  5
3C17
331
5334
  5
5367
331
5317
  5
533B
331
52FA
  5
531E
331
52E5
  5
5309
331
3411
  5
3427
331
53A9
  5
53D3
331
533D
  5
5370
331
5320
  5
5344
331
5303
  5
5327
331
52EE
  5
5312
331
52B4
  5
52EF
331
344C
  5
3AE8
331
53E4
  5
53FA
331
5401
  5
53D4
331
53CF
  5
53D6
331
5395
  5
53CD
331
5346
  5
5384
331
5329
  5
534E
331
530C
  5
5330
331
53ED
  5
53FE
331
53D8
  5
53E5
331
539E
  5
52A4
331
53F6
  5
53D2
331
4FF5
  5
5004
331
53FF
  5
53EB
331
4FBB
  5
4FFC
331
48E5
  5
48E5
331
4FFE
  5
51DE
331
1DFF
  5
1DFF
331
51D9
  5
526C
331
1E95
  5
1E95
331
1EED
  5
1EED
331
55E1
  5
55F6
331
5274
  5
52B4
331
5624
  5
5639
331
5607
  5
561C
331
55EA
  5
55FF
331
563D
  5
5691
331
562D
  5
5642
331
5610
  5
5625
331
55F3
  5
5608
331
55D6
  5
55ED
331
569D
  5
56AA
331
56B2
  5
55D2
331
5646
  5
569C
331
5636
  5
564B
331
5619
  5
562E
331
55FC
  5
5611
331
56A6
  5
55E4
331
56AF
  5
55CE
331
3E5A
  5
3E89
331
52F0
  5
5314
331
5333
  5
5366
331
5316
  5
533A
331
52F9
  5
531D
331
538B
  5
53AD
331
533C
  5
536F
331
531F
  5
5343
331
5302
  5
5326
331
52ED
  5
5311
331
344B
  5
3AE7
331
53E3
  5
53F9
331
5400
  5
53F2
331
53CE
  5
53D5
331
5394
  5
53CC
331
5345
  5
5383
331
5328
  5
534D
331
530B
  5
532F
331
53D7
  5
53E3
331
53F5
  5
4FD1
331
4FF4
  5
5003
331
53FE
  5
53FB
331
4FBA
  5
4FBA
331
4FFD
  5
51DD
331
5006
  5
524D
331
1E07
  5
1E07
331
1EEC
  5
1EEC
331
5623
  5
5638
331
5606
  5
561B
331
55E9
  5
55FE
331
563C
  5
5684
331
562C
  5
5641
331
560F
  5
5624
331
55F2
  5
5607
331
55D5
  5
55EC
331
569C
  5
56A9
331
56B1
  5
55D1
331
5645
  5
569B
331
5635
  5
564A
331
5618
  5
562D
331
55FB
  5
5610
331
55DE
  5
55F5
331
564E
  5
56A4
331
56A5
  5
55E3
331
5691
  5
56B5
331
56AE
  5
55DC
331
3E59
  5
3E88
331
3B20
  5
3C14
331
5332
  5
5365
331
5315
  5
5339
331
52F8
  5
531C
331
52E3
  5
5307
331
538A
  5
53A5
331
533B
  5
536E
331
531E
  5
5342
331
5301
  5
5325
331
52EC
  5
5310
331
53E2
  5
53F6
331
5393
  5
52FA
331
53CD
  5
4FF4
331
5344
  5
5382
331
5327
  5
534B
331
530A
  5
532E
331
53EB
  5
53F7
331
53D6
  5
53E2
331
539C
  5
5273
331
53DF
  5
53F1
331
53F4
  5
4FBD
331
4FF3
  5
5002
331
53FD
  5
4FF6
331
4FB9
  5
4FB9
331
1E08
  5
1E08
331
4FFC
  5
51DC
331
5005
  5
5247
331
1E06
  5
1E06
331
5272
  5
52B2
331
5622
  5
5637
331
5605
  5
561A
331
55E8
  5
55FD
331
563B
  5
5654
331
562B
  5
5640
331
560E
  5
5623
331
55F1
  5
5606
331
55D4
  5
55EB
331
42A3
  5
45BD
331
569B
  5
56A8
331
56B0
  5
55D0
331
5644
  5
569A
331
5634
  5
5649
331
5617
  5
562C
331
55FA
  5
560F
331
55DD
  5
55F4
331
564D
  5
56A3
331
56A4
  5
55E2
331
56AD
  5
55DB
331
3EE0
  5
3FF4
331
3B28
  5
3C16
331
5331
  5
5363
331
5314
  5
5338
331
52F7
  5
531B
331
52E2
  5
5306
331
5389
  5
53A4
331
533A
  5
536D
331
531D
  5
5341
331
5300
  5
5324
331
52EB
  5
530F
331
52B1
  5
52EE
331
3417
  5
342D
331
53E1
  5
53F4
331
5392
  5
52F9
331
53AF
  5
4FF5
331
5343
  5
5376
331
5326
  5
534A
331
53CC
  5
4FC1
331
5309
  5
532D
331
53EA
  5
5400
331
53D5
  5
53E0
331
532F
  5
5361
331
539B
  5
5291
331
53DE
  5
53EF
331
53F3
  5
53E6
331
53FC
  5
53DC
331
4FF2
  5
5001
331
4FFB
  5
51DB
331
5004
  5
5246
331
1E05
  5
1E05
331
51DF
  5
5281
331
1F73
  5
1F73
331
5621
  5
5636
331
5604
  5
5619
331
55E7
  5
55FC
331
563A
  5
5653
331
562A
  5
563F
331
560D
  5
5622
331
55F0
  5
5605
331
55D3
  5
55EA
331
569A
  5
56A7
331
5643
  5
5699
331
5633
  5
5648
331
5616
  5
562B
331
55F9
  5
560E
331
55DC
  5
55F3
331
564C
  5
56A2
331
56A3
  5
55E1
331
561F
  5
5634
331
56AC
  5
55DA
331
5330
  5
5362
331
5313
  5
5337
331
52F6
  5
531A
331
52E1
  5
5305
331
5388
  5
53A3
331
5339
  5
536C
331
531C
  5
5340
331
52FF
  5
5323
331
52EA
  5
530E
331
52B0
  5
52ED
331
3416
  5
342C
331
53E0
  5
53F3
331
5391
  5
52F8
331
5342
  5
5375
331
5325
  5
5349
331
5308
  5
532C
331
53E9
  5
53E4
331
53D4
  5
53DE
331
534B
  5
5389
331
539A
  5
527D
331
532E
  5
5360
331
53F2
  5
53F0
331
53DD
  5
53ED
331
53A3
  5
53D1
331
5386
  5
4FF8
331
53FB
  5
53F5
331
4FF1
  5
5000
331
4FFA
  5
5041
331
5003
  5
51F4
331
503E
  5
524E
331
1E04
  5
1E04
331
51DE
  5
527E
331
5270
  5
52AF
331
5620
  5
5635
331
5603
  5
5618
331
55E6
  5
55FB
331
5639
  5
564E
331
5629
  5
563E
331
560C
  5
5621
331
55EF
  5
5604
331
55D2
  5
55E9
331
42A1
  5
45BC
331
5699
  5
56B4
331
5642
  5
5698
331
5632
  5
5647
331
5615
  5
562A
331
55F8
  5
560D
331
55DB
  5
55F2
331
564B
  5
56A1
331
56A2
  5
55DE
331
561E
  5
5633
331
5654
  5
56A6
331
56AB
  5
55D9
331
5697
  5
56B2
331
52BA
  5
52F5
331
5312
  5
5336
331
52F5
  5
5319
331
5338
  5
536B
331
531B
  5
533F
331
52FE
  5
5322
331
52E9
  5
530D
331
3415
  5
342B
331
5390
  5
52F7
331
5341
  5
5374
331
5324
  5
5348
331
53AD
  5
4FF2
331
5307
  5
532B
331
3450
  5
3AEC
331
53E8
  5
5401
331
53D3
  5
53DD
331
5399
  5
5270
331
534A
  5
5388
331
532D
  5
535F
331
53DC
  5
53EC
331
53F1
  5
53E8
331
5385
  5
4FF9
331
53FA
  5
53D9
331
4FF9
  5
500A
331
5002
  5
51F3
331
1E03
  5
1E03
331
51DD
  5
527C
331
526F
  5
52AE
331
5602
  5
5617
331
55E5
  5
55FA
331
5638
  5
564D
331
5628
  5
563D
331
560B
  5
5620
331
55EE
  5
5603
331
55D1
  5
55E8
331
5698
  5
56B3
331
5641
  5
5697
331
5631
  5
5646
331
5614
  5
5629
331
55F7
  5
560C
331
55DA
  5
55F1
331
5684
  5
56AE
331
56A1
  5
55DD
331
564A
  5
56A0
331
561D
  5
5632
331
5653
  5
56A5
331
56AA
  5
55D8
331
5696
  5
56B1
331
52B9
  5
52F4
331
5311
  5
5335
331
52F4
  5
5318
331
5337
  5
536A
331
531A
  5
533E
331
52FD
  5
5321
331
52E8
  5
530C
331
3414
  5
342A
331
538F
  5
52F6
331
5340
  5
5373
331
535D
  5
4FFB
331
5323
  5
5347
331
5306
  5
532A
331
53AC
  5
4FBC
331
344F
  5
3AEB
331
53E7
  5
53FF
331
53D2
  5
53DB
331
5398
  5
527F
331
5349
  5
5387
331
532C
  5
535E
331
530F
  5
5333
331
53DB
  5
53EA
331
53F0
  5
53D0
331
53A1
  5
53CF
331
5384
  5
52B8
331
53F9
  5
53E1
331
4FF8
  5
5009
331
5001
  5
51E1
331
1E02
  5
1E02
331
5248
  5
52A2
331
51DC
  5
5275
331
5601
  5
5616
331
55E4
  5
55F9
331
5627
  5
563C
331
560A
  5
561F
331
55ED
  5
5602
331
55D0
  5
55E7
331
5640
  5
5696
331
5630
  5
5645
331
5613
  5
5628
331
55F6
  5
560B
331
55D9
  5
55F0
331
56A0
  5
56AD
331
56B5
  5
55D5
331
5649
  5
569F
331
561C
  5
5631
331
55FF
  5
5614
331
56A9
  5
55D7
331
5695
  5
56B0
331
3B1B
  5
3C13
331
52B8
  5
52F3
331
3B24
  5
3C15
331
5310
  5
5334
331
52F3
  5
5317
331
5336
  5
5369
331
5319
  5
533D
331
52FC
  5
5320
331
52E7
  5
530B
331
3413
  5
3429
331
533F
  5
5372
331
535C
  5
52B6
331
5322
  5
5346
331
5305
  5
5329
331
53AB
  5
4FBB
331
344E
  5
3AEA
331
53E6
  5
53FD
331
53D1
  5
53DA
331
5397
  5
5276
331
5348
  5
5386
331
532B
  5
535D
331
530E
  5
5332
331
53DA
  5
53E9
331
53EF
  5
53DF
331
5383
  5
526D
331
53F8
  5
53D7
331
4FF7
  5
5006
331
4FBD
  5
4FFE
331
5000
  5
51E0
331
51DB
  5
5271
331
526D
  5
52AD
331
5600
  5
5615
331
55E3
  5
55F8
331
5626
  5
563B
331
5609
  5
561E
331
55EC
  5
5601
331
563F
  5
5695
331
562F
  5
5644
331
5612
  5
5627
331
55F5
  5
560A
331
55D8
  5
55EF
331
569F
  5
56AC
331
56B4
  5
55D4
331
5648
  5
569E
331
561B
  5
5630
331
55FE
  5
5613
331
464A
  5
4869
331
56A8
  5
55D6
331
5694
  5
56AF
331
302E
  5
303E
331
52F2
  5
5316
331
5335
  5
5368
331
5318
  5
533C
331
52FB
  5
531F
331
52E6
  5
530A
331
3412
  5
3428
331
533E
  5
5371
331
5321
  5
5345
331
5304
  5
5328
331
52EF
  5
5313
331
52B5
  5
52F0
331
344D
  5
3AE9
  0
LAYOUT
  5
34DD
102
{ACAD_REACTORS
330
34DA
102
}
330
34DA
100
AcDbPlotSettings
  1

  2
HP-Plotter
  4

  6

 40
0.0
 41
0.0
 42
0.0
 43
0.0
 44
0.0
 45
0.0
 46
0.0
 47
0.0
 48
0.0
 49
0.0
140
0.0
141
0.0
142
1.0
143
1.0
 70
   688
 72
     0
 73
     0
 74
     5
  7

 75
    16
147
1.0
 76
     0
 77
     2
 78
   300
148
0.0
149
0.0
100
AcDbLayout
  1
Layout1
 70
     0
 71
     1
 10
0.0
 20
0.0
 11
12.0
 21
9.0
 12
0.0
 22
0.0
 32
0.0
 14
1.000000000000000E+20
 24
1.000000000000000E+20
 34
1.000000000000000E+20
 15
-1.000000000000000E+20
 25
-1.000000000000000E+20
 35
-1.000000000000000E+20
146
0.0
 13
0.0
 23
0.0
 33
0.0
 16
1.0
 26
0.0
 36
0.0
 17
0.0
 27
1.0
 37
0.0
 76
     0
330
14
  0
LAYOUT
  5
34DC
102
{ACAD_REACTORS
330
34DA
102
}
330
34DA
100
AcDbPlotSettings
  1

  2
Lexmark Z53 Series ColorFine
  4
Letter
  6
A
 40
3.174999952316281
 41
3.174999952316281
 42
3.175003051757812
 43
3.17498779296875
 44
215.9000091552734
 45
279.3999938964844
 46
0.0
 47
73.914
 48
9.605296128582663
 49
0.25
140
16.75
141
9.210266673779321
142
1.0
143
0.5311810559416971
 70
 11956
 72
     0
 73
     0
 74
     0
  7

 75
     0
147
1.882597259096831
 76
     0
 77
     2
 78
   300
148
-890.6451880531861
149
-195.5794810153958
100
AcDbLayout
  1
Model
 70
     1
 71
     0
 10
0.0
 20
0.0
 11
12.0
 21
9.0
 12
0.0
 22
0.0
 32
0.0
 14
0.0
 24
0.0
 34
0.0
 15
0.0
 25
0.0
 35
0.0
146
0.0
 13
0.0
 23
0.0
 33
0.0
 16
1.0
 26
0.0
 36
0.0
 17
0.0
 27
1.0
 37
0.0
 76
     0
330
17
  0
MLINESTYLE
  5
1B
102
{ACAD_REACTORS
330
1A
102
}
330
1A
100
AcDbMlineStyle
  2
STANDARD
 70
     0
  3

 62
   256
 51
90.0
 52
90.0
 71
     2
 49
0.5
 62
   256
  6
BYLAYER
 49
-0.5
 62
   256
  6
BYLAYER
  0
ACDBPLACEHOLDER
  5
34D9
102
{ACAD_REACTORS
330
34D8
102
}
330
34D8
  0
TABLESTYLE
  5
4092
102
{ACAD_REACTORS
330
4091
102
}
330
4091
100
AcDbTableStyle
  3
Standard
 70
     0
 71
     0
 40
0.06
 41
0.06
280
     0
281
     0
  7
STANDARD
140
0.18
170
     2
 62
     0
 63
     7
283
     0
274
    -2
284
     1
 64
     0
275
    -2
285
     1
 65
     0
276
    -2
286
     1
 66
     0
277
    -2
287
     1
 67
     0
278
    -2
288
     1
 68
     0
279
    -2
289
     1
 69
     0
  7
STANDARD
140
0.25
170
     5
 62
     0
 63
     7
283
     0
274
    -2
284
     1
 64
     0
275
    -2
285
     1
 65
     0
276
    -2
286
     1
 66
     0
277
    -2
287
     1
 67
     0
278
    -2
288
     1
 68
     0
279
    -2
289
     1
 69
     0
  7
STANDARD
140
0.18
170
     5
 62
     0
 63
     7
283
     0
274
    -2
284
     1
 64
     0
275
    -2
285
     1
 65
     0
276
    -2
286
     1
 66
     0
277
    -2
287
     1
 67
     0
278
    -2
288
     1
 68
     0
279
    -2
289
     1
 69
     0
  0
DICTIONARYVAR
  5
40B2
102
{ACAD_REACTORS
330
1C5
102
}
330
1C5
100
DictionaryVariables
280
     0
  1
STANDARD
  0
DICTIONARYVAR
  5
1C6
102
{ACAD_REACTORS
330
1C5
102
}
330
1C5
100
DictionaryVariables
280
     0
  1
2
  0
DICTIONARYVAR
  5
408B
102
{ACAD_REACTORS
330
1C5
102
}
330
1C5
100
DictionaryVariables
280
     0
  1
1
  0
DICTIONARYVAR
  5
307F
102
{ACAD_REACTORS
330
1C5
102
}
330
1C5
100
DictionaryVariables
280
     0
  1
1
  0
DICTIONARYVAR
  5
4355
102
{ACAD_REACTORS
330
1C5
102
}
330
1C5
100
DictionaryVariables
280
     0
  1

  0
ACMDATADICTIONARY
  5
47E8
102
{ACAD_REACTORS
330
30D8
102
}
330
30D8
100
AcDbDictionary
281
     1
  3
*A1
350
47E9
100
AcmDataDictionary
  0
DICTIONARY
  5
3F79
102
{ACAD_REACTORS
330
30D8
102
}
330
30D8
100
AcDbDictionary
281
     1
  3
ANSI
350
47F3
  0
XRECORD
  5
4099
102
{ACAD_REACTORS
330
30D8
102
}
330
30D8
100
AcDbXrecord
280
     1
 90
-1023410169
  0
DICTIONARY
  5
3F3C
102
{ACAD_REACTORS
330
34E1
102
}
330
34E1
100
AcDbDictionary
281
     1
  3
DWGSETTINGS
350
473A
  3
TRANSSETTINGS
350
473B
  0
ACAMGFILTERDAT
  5
3F9E
102
{ACAD_REACTORS
330
3F9D
102
}
330
3F9D
100
AcAmgFilterDat
 70
    15
  1
HATCH
  2
*
  3
*
  4
*
  5
*
290
     1
  0
ACAMGFILTERDAT
  5
3F9F
102
{ACAD_REACTORS
330
3F9D
102
}
330
3F9D
100
AcAmgFilterDat
 70
    15
  1
LINE
  2
8,8N,*-8,*-8N,AM_8,AM_8N,*-AM_8,*-AM_8N
  3
*
  4
*
  5
INSERT,STDPART2D
290
     1
  0
LAYER_INDEX
  5
4314
102
{ACAD_REACTORS
330
4313
102
}
330
4313
100
AcDbIndex
 40
2454280.617635683
100
AcDbLayerIndex
  8
0
360
4315
 90
        0
  8
L1
360
4316
 90
      405
  8
L0
360
431F
 90
       21
  8
DEFPOINTS
360
4320
 90
        0
  8
L11
360
4322
 90
        0
  8
L12
360
4324
 90
        0
  8
LREV
360
432E
 90
       14
  8
OPEN_HMJOB_DICT
360
432F
 90
        1
  8
OPEN_HMJOB
360
4330
 90
        6
  0
ACMDATAENTRYBLOCK
  5
47E9
102
{ACAD_REACTORS
330
47E8
102
}
330
47E8
100
AcmDataEntry
100
AcmDataEntryBlock
  0
IDBUFFER
  5
4315
330
0
100
AcDbIdBuffer
  0
IDBUFFER
  5
4316
330
0
100
AcDbIdBuffer
330
56A7
330
56A8
330
56A9
330
56AA
330
56AB
330
56AC
330
56AD
330
56AE
330
56AF
330
56B0
330
56B1
330
56B2
330
56B3
330
56B4
330
56B5
330
55CE
330
55D0
330
55D1
330
55D2
330
55D3
330
55D4
330
55D5
330
55D6
330
55D7
330
55D8
330
55D9
330
55DA
330
55DB
330
55DC
330
55DD
330
55DE
330
55E1
330
55E2
330
55E3
330
55E4
330
55E5
330
55E6
330
55E7
330
55E8
330
55E9
330
55EA
330
55EB
330
55EC
330
55ED
330
55EE
330
55EF
330
55F0
330
55F1
330
55F2
330
55F3
330
55F4
330
55F5
330
55F6
330
55F7
330
55F8
330
55F9
330
55FA
330
55FB
330
55FC
330
55FD
330
55FE
330
55FF
330
5600
330
5601
330
5602
330
5603
330
5604
330
5605
330
5606
330
5607
330
5608
330
5609
330
560A
330
560B
330
560C
330
560D
330
560E
330
560F
330
5610
330
5611
330
5612
330
5613
330
5614
330
5615
330
5616
330
5617
330
5618
330
5619
330
561A
330
561B
330
561C
330
561D
330
561E
330
561F
330
5620
330
5621
330
5622
330
5623
330
5624
330
5625
330
5626
330
5627
330
5628
330
5629
330
562A
330
562B
330
562C
330
562D
330
562E
330
562F
330
5630
330
5631
330
5632
330
5633
330
5634
330
5635
330
5636
330
5637
330
535C
330
5384
330
5388
330
5389
330
538A
330
538B
330
5394
330
5395
330
4FBD
330
4FBB
330
4FF1
330
4FF2
330
4FF3
330
4FF4
330
4FF5
330
4FF6
330
4FF7
330
4FF8
330
4FF9
330
4FFA
330
4FFB
330
4FFC
330
4FFD
330
4FFE
330
4FFF
330
5000
330
5001
330
5002
330
5003
330
5004
330
5005
330
5006
330
503E
330
51D9
330
5383
330
533F
330
533E
330
533D
330
533C
330
533B
330
533A
330
5339
330
5338
330
5337
330
5336
330
5335
330
5334
330
5333
330
5332
330
5331
330
5330
330
532F
330
532E
330
532D
330
534B
330
534A
330
5349
330
5348
330
5347
330
5346
330
56A6
330
5345
330
5344
330
5343
330
5342
330
5341
330
5340
330
532C
330
532B
330
52E1
330
52E2
330
52E3
330
56A5
330
52E5
330
52E6
330
52E7
330
52E8
330
52E9
330
52EA
330
52EB
330
52EC
330
52ED
330
52EE
330
52EF
330
52F0
330
52F1
330
52F2
330
52F3
330
52F4
330
52F5
330
52F6
330
52F7
330
52F8
330
52F9
330
52FA
330
52FB
330
52FC
330
52FD
330
52FE
330
52FF
330
5300
330
5301
330
5302
330
5303
330
5304
330
5305
330
5306
330
5307
330
5308
330
5309
330
530A
330
530B
330
530C
330
530D
330
530E
330
530F
330
5310
330
5311
330
5312
330
5313
330
5314
330
5315
330
5316
330
5317
330
5318
330
5319
330
531A
330
531B
330
531C
330
531D
330
531E
330
531F
330
5320
330
5321
330
5322
330
5323
330
5324
330
5325
330
5326
330
5327
330
5328
330
5329
330
532A
330
5397
330
5398
330
5399
330
539A
330
539B
330
539C
330
51DF
330
51DA
330
51DB
330
51DC
330
51DD
330
51DE
330
5248
330
53AD
330
53AC
330
53AB
330
5401
330
5400
330
53A9
330
53FF
330
53FE
330
53FD
330
53FC
330
53FB
330
53FA
330
53F9
330
53F8
330
53F7
330
53F6
330
53F5
330
53F4
330
53F3
330
53F2
330
53F1
330
53F0
330
53EF
330
53EE
330
53ED
330
53EB
330
52B0
330
52B1
330
53EA
330
53E9
330
52B4
330
52B5
330
53E8
330
53E7
330
52B8
330
52B9
330
52BA
330
53E6
330
53E5
330
53E4
330
535D
330
53E3
330
53E2
330
5382
330
5385
330
5386
330
538F
330
5390
330
5391
330
5392
330
5393
330
539E
330
539F
330
53E1
330
53A1
330
53E0
330
53A3
330
53DF
330
53AF
330
53CC
330
53CD
330
53CE
330
53CF
330
53D0
330
53D1
330
53D2
330
53D3
330
53D4
330
53D5
330
53D6
330
53D7
330
53D8
330
53D9
330
53DA
330
53DB
330
53DC
330
53DD
330
53DE
330
4FB9
330
4FBA
330
4FBC
330
526D
330
526F
330
5270
330
5272
330
5274
330
5275
330
5638
330
5639
330
563A
330
563B
330
563C
330
563D
330
563E
330
563F
330
5640
330
5641
330
5642
330
5643
330
5644
330
5645
330
5646
330
5647
330
5648
330
5649
330
564A
330
564B
330
564C
330
564D
330
564E
330
5653
330
5654
330
5684
330
5691
330
5694
330
5695
330
5696
330
5697
330
5698
330
5699
330
569A
330
569B
330
569C
330
569D
330
569E
330
569F
330
56A0
330
56A1
330
56A2
330
56A3
330
56A4
  0
IDBUFFER
  5
431F
330
0
100
AcDbIdBuffer
330
1DFF
330
1E02
330
1E03
330
1E04
330
1E05
330
1E06
330
1E07
330
1E08
330
48E5
330
1E28
330
1E95
330
1E96
330
1EEC
330
1EED
330
1F73
330
20F0
330
302E
330
3E59
330
3E5A
330
42A1
330
42A3
  0
IDBUFFER
  5
4320
330
0
100
AcDbIdBuffer
  0
IDBUFFER
  5
4322
330
0
100
AcDbIdBuffer
  0
IDBUFFER
  5
4324
330
0
100
AcDbIdBuffer
  0
IDBUFFER
  5
432E
330
0
100
AcDbIdBuffer
330
3411
330
3412
330
3413
330
3414
330
3415
330
3416
330
3417
330
344B
330
344C
330
344D
330
344E
330
344F
330
3450
330
3EE0
  0
IDBUFFER
  5
432F
330
0
100
AcDbIdBuffer
330
3B1B
  0
IDBUFFER
  5
4330
330
0
100
AcDbIdBuffer
330
3B20
330
3B24
330
3B28
330
3B48
330
464A
330
4725
  0
ENDSEC
  0
EOF
